>
 >
The Goat Nervosa

The Goat Nervosa Guitar Tabs

Showbread - The Goat Nervosa chords, tabs, tablatures, lyrics

Guitar lessons | Add/correct | Request | Top 50 tabs Artists:  A B C D E F G H I J K L M N O P Q R S T U V W X Y Z 0-9

The Goat Nervosa Guitar Tabs – Showbread

CD, Sheet music, Poster

Do you like The Goat Nervosa? Share with your friends now
Tabs
Showbread
The Goat
Nervosa
 2008 Tooth and Nail
Tuning - Standard: EADGBE


Legend:
  /   Slide Up
  h   Hammer On
  p   Pull Off
  .   Palm Mute
  b   Bend
  x   Mute Strings
  x/  Pick Slide
  *   Harmonic

Intro: (0:00)
                    
E[----------------------------------------]
B[----------------------------------------]
G[----------------------------------------]
D[--2-------------------------5--5--7--7--]
A[--2-------------------------5--5--7--7--]
E[--0-------------------------3--3--5--5--]
     (let ring)

E[----------------------------------------]
B[----------------------------------------]
G[----------------------------------------]
D[--222222222222222222222222--5--5--7--7--]
A[--222222222222222222222222--5--5--7--7--]
E[--000000000000000000000000--3--3--5--5--]
 PM ........................

E[----------------------------------------]
B[----------------------------------------]
G[----------------------------------------]
D[--222222222222222222222222--5--5--7--7--]
A[--222222222222222222222222--5--5--7--7--]
E[--000000000000000000000000--3--3--5--5--]
 PM ........................

E[----------------------------------------]
B[----------------------------------------]
G[----------------------------------------]
D[--2-------------------------5--5--7--7--]
A[--2---------------x/-----x/-5--5--7--7--]
E[--0---------------x/-----x/-3--3--5--5--]
     (let ring)


Verse 1: (0:19)

E[----------------------------------------]
B[----------------------------------------]
G[----------------------------------------]
D[----------------------------5--5--7--7--]
A[----------------------------5--5--7--7--]
E[----------------------------3--3--5--5--]
    (I am the pride,
               I am the lust,
                     I am the burning ache)

E[----------------------------------------]
B[----------------------------------------]
G[----------------------------------------]
D[----------------------------5--5--7--7--]
A[----------------------------5--5--7--7--]
E[----------------------------3--3--5--5--]
    (I am the you
             you always were,
                         I am eternal fake)

E[----------------------------------------]
B[----------------------------------------]
G[----------------------------------------]
D[----------------------------5--5--7--7--]
A[----------------------------5--5--7--7--]
E[----------------------------3--3--5--5--]
    (I am the beast,
              I am the snake,
                     I am the love of self)

E[----------------------------------------]
B[----------------------------------------]
G[----------------------------------------]
D[----------------------------5--5--7--7--]
A[----------------------------5--5--7--7--]
E[----------------------------3--3--5--5--]
    (I am your heart,
              I am your soul,
                      I am the living hell)


Pre-Chorus: (0:39)
    
E[----------------------------------------]
B[----------------------------------------]
G[----------------------------------------]
D[--8------7------2------2bb--------------]
A[--8------7------2------2bb--------------]
E[--6------5------0------0bb--------------]
    (So open up and let it in)

E[----------------------------------------]
B[----------------------------------------]
G[----------------------------------------]
D[--8------7------2------2bb--------------]
A[--8------7------2------2bb--------------]
E[--6------5------0------0bb--------------]
    (I'm not afraid of anything,
                         I never have been)


Verse 2: (0:48)

E[----------------------------------------]
B[----------------------------------------]
G[----------------------------------------]
D[--222222222222222222222222--5--5--7--7--]
A[--222222222222222222222222--5--5--7--7--]
E[--000000000000000000000000--3--3--5--5--]
 PM ........................
    (I am the drip,
               I am the creep,
                       I am the ugly truth)

E[----------------------------------------]
B[----------------------------------------]
G[----------------------------------------]
D[--222222222222222222222222--5--5--7--7--]
A[--222222222222222222222222--5--5--7--7--]
E[--000000000000000000000000--3--3--5--5--]
 PM ........................
    (I am the dirt,
               I am the pain,
                        I am inside of you)

E[----------------------------------------]
B[----------------------------------------]
G[----------------------------------------]
D[--222222222222222222222222--5--5--7--7--]
A[--222222222222222222222222--5--5--7--7--]
E[--000000000000000000000000--3--3--5--5--]
 PM ........................
    (I am the cries,
                 I am the lies,
                            I am the empty)

E[----------------------------------------]
B[----------------------------------------]
G[----------------------------------------]
D[--222222222222222222222222--5--5--7--7--]
A[--222222222222222222222222--5--5--7--7--]
E[--000000000000000000000000--3--3--5--5--]
 PM ........................
    ( I am the ever
               growing hole,
                      Growing inside of me)


Pre-Chorus: (1:08)
    
E[----------------------------------------]
B[----------------------------------------]
G[----------------------------------------]
D[--8------7------2------2bb--------------]
A[--8------7------2------2bb--------------]
E[--6------5------0------0bb--------------]
    (So open up and let it in)

E[----------------------------------------]
B[----------------------------------------]
G[----------------------------------------]
D[--8------7------2------2-7*-------------]
A[--8------7------2------2-7*-------------]
E[--6------5------0------0----------------]
    (I'm not afraid of anything,
                         I never have been)


Chorus: (1:17)

E[-----------------------------------]
B[-----------------------------------]
G[-----------------------------------]
D[--2-2-2-2-2-2-2-2-2-2-2-2-2-2-2-2--]
A[--2-2-2-2-2-2-2-2-2-2-2-2-2-2-2-2--]
E[--0-0-0-0-0-0-0-0-0-0-0-0-0-0-0-0--]
    (No future!
            No future!
                No future for anyone!)

E[-----------------------------------]
B[-----------------------------------]
G[-----------------------------------]
D[--5-5-5-5-5-5-5-5-5-5-5-5-5-5-5-5--]
A[--5-5-5-5-5-5-5-5-5-5-5-5-5-5-5-5--]
E[--3-3-3-3-3-3-3-3-3-3-3-3-3-3-3-3--]
    (No future!
            No future!
                No future for anyone!)

E[-----------------------------------]
B[-----------------------------------]
G[-----------------------------------]
D[--7-7-7-7-7-7-7-7-7-7-7-7-7-7-7-7--]
A[--7-7-7-7-7-7-7-7-7-7-7-7-7-7-7-7--]
E[--5-5-5-5-5-5-5-5-5-5-5-5-5-5-5-5--]
    (No future!
            No future!
                No future for anyone!)

E[-----------------------------------]
B[--------------------------7-7-8-8--]
G[-----------------------------------]
D[--2-2-2-2-2-2-2-2-2-2-2-2----------]
A[--2-2-2-2-2-2-2-2-2-2-2-2----------]
E[--0-0-0-0-0-0-0-0-0-0-0-0----------]
    (No future!
            No future!
                No future for anyone!)


Post-Chorus: (1:36)

E[-----------------------------------]
B[-----------------------------------]
G[-----------------------------------]
D[--2-2-2-2-2-2-2-2-2-2-2-2-2-2-2-2--]
A[--2-2-2-2-2-2-2-2-2-2-2-2-2-2-2-2--]
E[--0-0-0-0-0-0-0-0-0-0-0-0-0-0-0-0--]
    (No! No!
          No future!
                No future for anyone!)

E[-----------------------------------]
B[-----------------------------------]
G[-----------------------------------]
D[--5-5-5-5-5-5-5-5-5-5-5-5-5-5-5-5--]
A[--5-5-5-5-5-5-5-5-5-5-5-5-5-5-5-5--]
E[--3-3-3-3-3-3-3-3-3-3-3-3-3-3-3-3--]
    (No! No!
          No future!
                No future for anyone!)

E[-----------------------------------]
B[-----------------------------------]
G[-----------------------------------]
D[--7-7-7-7-7-7-7-7-7-7-7-7-8-8-7-5--]
A[--7-7-7-7-7-7-7-7-7-7-7-7-8-8-7-5--]
E[--5-5-5-5-5-5-5-5-5-5-5-5-6-6-5-3--]
    (No! No!
          No future!
                No future for anyone!)

E[-----------------------------------]
B[--------------------------7-7-8-8--]
G[-----------------------------------]
D[--2-2-2-2-2-2-2-2-2-2-2-2----------]
A[--2-2-2-2-2-2-2-2-2-2-2-2----------]
E[--0-0-0-0-0-0-0-0-0-0-0-0----------]
    (No! No!
          No future!
                No future for anyone!)


Verse 3: (1:56)

E[----------------------------------------]
B[----------------------------------------]
G[----------------------------------------]
D[--222222222222222222222222--5--5--7--7--]
A[--222222222222222222222222--5--5--7--7--]
E[--000000000000000000000000--3--3--5--5--]
 PM ........................
    (I am the end,
             I am the waste,
                     I am the hollow shell)

E[----------------------------------------]
B[----------------------------------------]
G[----------------------------------------]
D[--222222222222222222222222--5--5--7--7--]
A[--222222222222222222222222--5--5--7--7--]
E[--000000000000000000000000--3--3--5--5--]
 PM ........................
    (I am the numb,
              I am the trash,
                      I am the god of self)

E[----------------------------------------]
B[----------------------------------------]
G[----------------------------------------]
D[--222222222222222222222222--5--5--7--7--]
A[--222222222222222222222222--5--5--7--7--]
E[--000000000000000000000000--3--3--5--5--]
 PM ........................
    (I am the death,
              I am the filth,
                       I am the everything)

E[----------------------------------------]
B[----------------------------------------]
G[----------------------------------------]
D[--222222222222222222222222--5--5--7--7--]
A[--222222222222222222222222--5--5--7--7--]
E[--000000000000000000000000--3--3--5--5--]
 PM ........................
    (I am inside,
                I am alive,
                         I am the anything)


Pre-Chorus: (2:15)

E[----------------------------------------]
B[----------------------------------------]
G[----------------------------------------]
D[--8------7------2------2bb--------------]
A[--8------7------2------2bb--------------]
E[--6------5------0------0bb--------------]
    (So open up and let it in)

E[----------------------------------------]
B[----------------------------------------]
G[----------------------------------------]
D[--8------7------2------2bb--------------]
A[--8------7------2------2bb--------------]
E[--6------5------0------0bb--------------]
    (I'm not afraid of anything,
                         I never have been)

E[----------------------------------------]
B[----------------------------------------]
G[----------------------------------------]
D[--8------7------2------2bb--------------]
A[--8------7------2------2bb--------------]
E[--6------5------0------0bb--------------]
    (So open up and let it in)

E[----------------------------------------]
B[----------------------------------------]
G[----------------------------------------]
D[--8------7------2------2-7*-------------]
A[--8------7------2------2-7*-------------]
E[--6------5------0------0----------------]
    (Burn me up, swallow me,
            Turn me up and follow me)


Chorus: (2:34)

E[-----------------------------------]
B[-----------------------------------]
G[-----------------------------------]
D[--2-2-2-2-2-2-2-2-2-2-2-2-2-2-2-2--]
A[--2-2-2-2-2-2-2-2-2-2-2-2-2-2-2-2--]
E[--0-0-0-0-0-0-0-0-0-0-0-0-0-0-0-0--]
    (No future!
            No future!
                No future for anyone!)

E[-----------------------------------]
B[-----------------------------------]
G[-----------------------------------]
D[--5-5-5-5-5-5-5-5-5-5-5-5-5-5-5-5--]
A[--5-5-5-5-5-5-5-5-5-5-5-5-5-5-5-5--]
E[--3-3-3-3-3-3-3-3-3-3-3-3-3-3-3-3--]
    (No future!
            No future!
                No future for anyone!)

E[-----------------------------------]
B[-----------------------------------]
G[-----------------------------------]
D[--7-7-7-7-7-7-7-7-7-7-7-7-7-7-7-7--]
A[--7-7-7-7-7-7-7-7-7-7-7-7-7-7-7-7--]
E[--5-5-5-5-5-5-5-5-5-5-5-5-5-5-5-5--]
    (No future!
            No future!
                No future for anyone!)

E[-----------------------------------]
B[--------------------------7-7-8-8--]
G[-----------------------------------]
D[--2-2-2-2-2-2-2-2-2-2-2-2----------]
A[--2-2-2-2-2-2-2-2-2-2-2-2----------]
E[--0-0-0-0-0-0-0-0-0-0-0-0----------]
    (No future!
            No future!
                No future for anyone!)


Post-Chorus: (2:53)

E[-----------------------------------]
B[-----------------------------------]
G[-----------------------------------]
D[--2-2-2-2-2-2-2-2-2-2-2-2-2-2-2-2--]
A[--2-2-2-2-2-2-2-2-2-2-2-2-2-2-2-2--]
E[--0-0-0-0-0-0-0-0-0-0-0-0-0-0-0-0--]
    (No! No!
          No future!
                No future for anyone!)

E[-----------------------------------]
B[-----------------------------------]
G[-----------------------------------]
D[--5-5-5-5-5-5-5-5-5-5-5-5-5-5-5-5--]
A[--5-5-5-5-5-5-5-5-5-5-5-5-5-5-5-5--]
E[--3-3-3-3-3-3-3-3-3-3-3-3-3-3-3-3--]
    (No! No!
          No future!
                No future for anyone!)

E[-----------------------------------]
B[-----------------------------------]
G[-----------------------------------]
D[--7-7-7-7-7-7-7-7-7-7-7-7-8-8-7-5--]
A[--7-7-7-7-7-7-7-7-7-7-7-7-8-8-7-5--]
E[--5-5-5-5-5-5-5-5-5-5-5-5-6-6-5-3--]
    (No! No!
          No future!
                No future for anyone!)

E[-----------------------------------]
B[--------------------------7-7-8-8--]
G[-----------------------------------]
D[--2-2-2-2-2-2-2-2-2-2-2-2----------]
A[--2-2-2-2-2-2-2-2-2-2-2-2----------]
E[--0-0-0-0-0-0-0-0-0-0-0-0----------]
    (No! No!
              No future!
                           No future!)


Solo: (3:12)
Guitar 1  (fast picking)
  E[----------------------------------------]
  B[--10b10b10b10b10b10b10b10b10b10b10b10b--]
  G[----------------------------------------]
  D[----------------------------------------]
  A[----------------------------------------]
  E[----------------------------------------]
Guitar 2
  E[----------------------------------------]
  B[----------------------------------------]
  G[----------------------------------------]
  D[--222222222222222222222222--5--5--7--7--]
  A[--222222222222222222222222--5--5--7--7--]
  E[--000000000000000000000000--3--3--5--5--]
   PM ........................

Guitar 1
  E[----------------------------------------]
  B[----------------------------------------]
  G[-----5h75h7/9-9b7h9-7h9p7---5h7p5-------]
  D[--5h7--------------------5h7-----5h7----]
  A[----------------------------------------]
  E[----------------------------------------]
Guitar 2
  E[----------------------------------------]
  B[----------------------------------------]
  G[----------------------------------------]
  D[--222222222222222222222222--5--5--7--7--]
  A[--222222222222222222222222--5--5--7--7--]
  E[--000000000000000000000000--3--3--5--5--]
   PM ........................

Guitar 1 (fast picking)
  E[--161616151515161616/22b22b22b22b22b22--]
  B[----------------------------------------]
  G[----------------------------------------]
  D[----------------------------------------]
  A[----------------------------------------]
  E[----------------------------------------]
Guitar 2
  E[----------------------------------------]
  B[----------------------------------------]
  G[----------------------------------------]
  D[--222222222222222222222222--5--5--7--7--]
  A[--222222222222222222222222--5--5--7--7--]
  E[--000000000000000000000000--3--3--5--5--]
   PM ........................

Guitar 1
  E[-------------------------------------------]
  B[-------------------------------------------]
  G[--10p9p7-h10p9p7-h10p9p7-h10p9p7-----------]
  D[-------------------------------------------]
  A[-------------------------------------------]
  E[-------------------------------------------]

  E[-------------------------------------------]
  B[-------------------------------------------]
  G[--12p11p9-h12p11p9-h12p11p9-h12p11p9-------]
  D[-------------------------------------------]
  A[-------------------------------------------]
  E[-------------------------------------------]

  E[-------------------------------------------]
  B[-------------------------------------------]
  G[--17p16p14-h17p16p14-h17p16p14-h17p16p14---]
  D[-------------------------------------------]
  A[-------------------------------------------]
  E[-------------------------------------------]

  E[-------------------------------------------]
  B[-------------------------------------------]
  G[--19p18p16h19p18p16h19p18p16h19p18p16-20b--] (let ring)
  D[-------------------------------------------]
  A[-------------------------------------------]
  E[-------------------------------------------]
Guitar 2
  E[----------------------------------------]
  B[----------------------------------------]
  G[----------------------------------------]
  D[--222222222222222222222222--5--5--7--7--]
  A[--222222222222222222222222--5--5--7--7--]
  E[--000000000000000000000000--3--3--5--5--]
   PM ........................


Breakdown: (3:32)
Guitar 1
  E[-------------------------------]
  B[-------------------------------]
  G[--(still-ringing-20b)----------]
  D[-------------------------------]
  A[-------------------------------]
  E[-------------------------------]
Guitar 2
  E[-------------------------------]
  B[-------------------------------]
  G[-------------------------------]
  D[--2------2------8---8---7---7--]
  A[--2------2------8---8---7---7--]
  E[--0------0------6---6---5---5--]
      (You   can't  save    your)

Guitar 1
  E[-------------------------------]
  B[-------------------------------]
  G[--(still ringing)--------------]
  D[-------------------------------]
  A[-------------------------------]
  E[-------------------------------]
Guitar 2
  E[-------------------------------]
  B[-------------------------------]
  G[-------------------------------]
  D[--2------2------5---5---7---7--]
  A[--2------2------5---5---7---7--]
  E[--0------0------3---3---5---5--]
      (Self, can't  save    your)

Guitar 1
  E[--18b-(let-ring)---------------]
  B[-------------------------------]
  G[-------------------------------]
  D[-------------------------------]
  A[-------------------------------]
  E[-------------------------------]
Guitar 2
  E[-------------------------------]
  B[-------------------------------]
  G[-------------------------------]
  D[--2------2------8---8---7---7--]
  A[--2------2------8---8---7---7--]
  E[--0------0------6---6---5---5--]
      (Self, can't  save    your)

Guitar 1
  E[--22b-(let-ring)---------------]
  B[-------------------------------]
  G[-------------------------------]
  D[-------------------------------]
  A[-------------------------------]
  E[-------------------------------]
Guitar 2
  E[-------------------------------]
  B[-------------------------------]
  G[-------------------------------]
  D[--2------2------5---5---7---7--]
  A[--2------2------5---5---7---7--]
  E[--0------0------3---3---5---5--]
      (Self, can't  save    your)

Guitar 1
  E[--22b-22b-22b-22b-22b-22b-22b--]
  B[-------------------------------]
  G[-------------------------------]
  D[-------------------------------]
  A[-------------------------------]
  E[-------------------------------]
Guitar 2
  E[-------------------------------]
  B[-------------------------------]
  G[-------------------------------]
  D[--2------2------8---8---7---7--]
  A[--2------2------8---8---7---7--]
  E[--0------0------6---6---5---5--]
      (Self, can't  save    your)

Guitar 1
  E[--22b-22b-22b-22b-22b----------]
  B[-------------------------------]
  G[-------------------------------]
  D[-------------------------------]
  A[-------------------------------]
  E[-------------------------------]
Guitar 2
  E[-------------------------------]
  B[-------------------------------]
  G[-------------------------------]
  D[--2------2------5---5---7---7--]
  A[--2------2------5---5---7---7--]
  E[--0------0------3---3---5---5--]
      (Self, can't  save    your)

Guitar 1
  E[--(guitar-squeals)-------------]
  B[-------------------------------]
  G[-------------------------------]
  D[-------------------------------]
  A[-------------------------------]
  E[-------------------------------]
Guitar 2
  E[-------------------------------]
  B[-------------------------------]
  G[-------------------------------]
  D[--2------2------8---8---7---7--]
  A[--2------2------8---8---7---7--]
  E[--0------0------6---6---5---5--]
      (Self, can't  save    your)

Guitar 1
  E[--(guitar-squeals)-------------]
  B[-------------------------------]
  G[-------------------------------]
  D[-------------------------------]
  A[-------------------------------]
  E[-------------------------------]
Guitar 2
  E[-------------------------------]
  B[-------------------------------]
  G[-------------------------------]
  D[--2------2------5---5---7---7--]
  A[--2------2------5---5---7---7--]
  E[--0------0------3---3---5---5--]
      (Self, can't  save    your)


Verse 4: (3:51)

E[----------------------------------------]
B[----------------------------------------]
G[----------------------------------------]
D[----------------------------------------]
A[----------------------------------------]
E[----------------------------------------]
    (Self!
      I am the faith
                That melts away,
                       I am the open mouth)

E[----------------------------------------]
B[----------------------------------------]
G[----------------------------------------]
D[----------------------------------------]
A[----------------------------------------]
E[----------------------------------------]
    (I am the ache
            That eats away,
                   I am the restless doubt)

E[----------------------------------------]
B[----------------------------------------]
G[----------------------------------------]
D[----------------------------------------]
A[----------------------------------------]
E[----------------------------------------]
    (I am the life
           That ends in tears,
                      No point to anything)

E[----------------------------------------]
B[----------------------------------------]
G[----------------------------------------]
D[----------------------------------------]
A[----------------------------------------]
E[----------------------------------------]
    (But I am my own
                    I am, I am, I am, I am)

E[----------------------------------------]
B[----------------------------------------]
G[----------------------------------------]
D[----------------------------------------]
A[--2--2-222-2--2-222-2--2-222-2--2-222---]
E[--0--0-000-0--0-000-0--0-000-0--0-000---]
PM  .  . ... .  . ... .  . ... .  . ...
    (I am the road
            That leads to nowhere
                           I'm the nothing)

E[----------------------------------------]
B[----------------------------------------]
G[----------------------------------------]
D[----------------------------------------]
A[--5--5-555-5--5-555-5--5-555-5--5-555---]
E[--3--3-333-3--3-333-3--3-333-3--3-333---]
PM  .  . ... .  . ... .  . ... .  . ...
    (I am the tentacles
                That tangle you,
                             I'm the empty)

E[----------------------------------------]
B[----------------------------------------]
G[----------------------------------------]
D[----------------------------------------]
A[--7--7-777-7--7-777-7--7-777-8-8-7-7----]
E[--5--5-555-5--5-555-5--5-555-6-6-5-5----]
PM  .  . ... .  . ... .  . ... . . . .
    (I am me,
                 I am myself,
                                    I am I)

E[----------------------------------------]
B[----------------------------------------]
G[----------------------------------------]
D[-----------------------------2--2-------]
A[--2--2-222-2--2-222-2--2-222-2--2--x/---]
E[--0--0-000-0--0-000-0--0-000-0--0--x/---]
PM  .  . ... .  . ... .  . ... 
    (I am the only
                Thing I am
                     The never ending lie!)


Chorus: (4:29)

E[-----------------------------------]
B[-----------------------------------]
G[-----------------------------------]
D[--2-2-2-2-2-2-2-2-2-2-2-2-2-2-2-2--]
A[--2-2-2-2-2-2-2-2-2-2-2-2-2-2-2-2--]
E[--0-0-0-0-0-0-0-0-0-0-0-0-0-0-0-0--]
    (No future!
            No future!
                No future for anyone!)

E[-----------------------------------]
B[-----------------------------------]
G[-----------------------------------]
D[--5-5-5-5-5-5-5-5-5-5-5-5-5-5-5-5--]
A[--5-5-5-5-5-5-5-5-5-5-5-5-5-5-5-5--]
E[--3-3-3-3-3-3-3-3-3-3-3-3-3-3-3-3--]
    (No future!
            No future!
                No future for anyone!)

E[-----------------------------------]
B[-----------------------------------]
G[-----------------------------------]
D[--7-7-7-7-7-7-7-7-7-7-7-7-7-7-7-7--]
A[--7-7-7-7-7-7-7-7-7-7-7-7-7-7-7-7--]
E[--5-5-5-5-5-5-5-5-5-5-5-5-5-5-5-5--]
    (No future!
            No future!
                No future for anyone!)

E[-----------------------------------]
B[--------------------------7-7-8-8--]
G[-----------------------------------]
D[--2-2-2-2-2-2-2-2-2-2-2-2----------]
A[--2-2-2-2-2-2-2-2-2-2-2-2----------]
E[--0-0-0-0-0-0-0-0-0-0-0-0----------]
    (No future!
            No future!
                No future for anyone!)


Post-Chorus: (4:49)

E[-----------------------------------]
B[-----------------------------------]
G[-----------------------------------]
D[--2-2---2---2---2---2---2---2---2--]
A[--2-2---2---2---2---2---2---2---2--]
E[--0-0---0---0---0---0---0---0---0--]
    (No! No!
          No future!
                No future for anyone!)

E[-----------------------------------]
B[-----------------------------------]
G[-----------------------------------]
D[--5-5---5---5---5---5---5---5---5--]
A[--5-5---5---5---5---5---5---5---5--]
E[--3-3---3---3---3---3---3---3---3--]
    (No! No!
          No future!
                No future for anyone!)

E[-----------------------------------]
B[-----------------------------------]
G[-----------------------------------]
D[--7-7---7---7---7---7---7-8-8-7-5--]
A[--7-7---7---7---7---7---7-8-8-7-5--]
E[--5-5---5---5---5---5---5-6-6-5-3--]
    (No! No!
          No future!
                No future for anyone!)

E[-----------------------------------]
B[-----------------------------------]
G[-----------------------------------]
D[--2-2---2---2---2---2---2--xxxx-2--]
A[--2-2---2---2---2---2---2--xxxx-2--] (let ring)
E[--0-0---0---0---0---0---0--xxxx-0--]
    (No! No!
              No future!
                           No future!)





Comments


Popular Showbread tabs & chords
Mouth Like A Magazine Bass Tabs
Age Of Reptiles Chords
The Fear Of God 1 Chords
A Llama Eats A Giraffe (And Vice Versa) Tabs
Dead By Dawn Tabs
Jessicas Song Tabs
Oh! Emetophobia! 1 Tabs
Pachycephalosaurus Tabs
The Dissonance Of Discontent Tabs
Welcome To Plainfield Tobe Hooper Tabs


Song lyrics



↑ Back to top | Tablatures and chords are parodies/interpretations of the original songs. You may use it for private study, scholarship, research or language learning purposes only
© 2014 AZChords.com Contact us | Privacy policy | DMCA | Add/correct tabs | Request tabs | Top 50 tabs