» » »

Showbread, The Flies Anorexia Tabs (ver.1)

Artists:  A B C D E F G H I J K L M N O P Q R S T U V W X Y Z # 

The Flies Anorexia Tabs (ver.1)

Showbread Tabs
Rating:
5/5 (1 vote)
The Flies Anorexia lessons Tabs too difficult? Try these video lessons and learn fast
                0:08 - 1:44
e--------------------------------------------------------------------------|
B--------------------------------------------------------------------------|
G------------------------------------------------5555-44-4-------5555-44-4-|
D---9---10101010-99-9---9---10101010-99-9---/5---xxxx-xx-x---5---xxxx-xx-x-|
A---7---7 7 7 7 -77-7---7---7 7 7 7 -77-7---/3---3333-33-3---3---3333-33-3-|
D--------------------------------------------------------------------------|

x6

0:39 - 1:44
e---------------------------------------------------------------------------|
B---------------------------------------------------------------------------|
G---------------------------------------------------------------------------|
D---------------------------------------------------------------------------|
A---/7---------------------------------------/5--------------/10----/15-/14-|
D---------------------------------------------------------------------------|

x4

1:12 - 1:44
e---------------------------------------------------------------------------|
B---------------------------------------------------------------------------|
G---------------------------------------------------------------------------|
D---2-----------------------------------------0-----------------------------|
A---2-----------------------------------------0-----------------------------|
D---2-----------------------------------------0-----------------------------|

x2

1:52 - 2:24
e---------------------|
B---------------------|
G---------------------|
D---------------------|  (There are some slight variations of this throughout
A---77777777b-7777777-|   but they're not important enough to tab)
D---------------------|

x8

2:08 - 2:24
e---------------------|
B---------------------|
G---------------------|
D---------------------|
A---22222222222222222-|
D---22222222222222222-|
    .................

x4

2:24 - 3:00
e--------------------|
B--------------------|
G--------------------|
D--------35--75-87-5-|
A---2222-35xx75x87x5-|
D---2222-35xx75x97x5-|
    ....

x10

2:40 - 2:56
e------------------------------------|
B------------------------------------|
G------------------------------------|
D---77777777777777775555555555555555-|
A------------------------------------|
D------------------------------------|

x2

3:00 - 3:04
e---------------------|
B---------------------|
G---------------------|
D--------35--75-87-5/-|
A---2222-35xx75x87x5/-|
D---2222-35xx75x87x5/-|
    ....


Key:     .=palm mute    x=muted string    /=slide
            
Submit corrections

comments powered by Disqus
↑ Back to top | Showbread Tabs for The Flies Anorexia. Lyrics for acoustic guitar and electric guitar. Tablatures and chords are parodies/interpretations of the original songs. You may use it for private study, scholarship, research or language learning purposes only