» » »

Showbread, The End Anorexia Tabs (ver.1)

Artists:  A B C D E F G H I J K L M N O P Q R S T U V W X Y Z # 

The End Anorexia Tabs (ver.1)

Showbread Tabs
Rating:
0/5 (0 votes)
The End Anorexia lessons Tabs too difficult? Try these video lessons and learn fast
                Album:Anorexia

Tuning Standard


e|----------------------------------------------------|
B|----------------------------------------------------|
G|----------------------------------------------------|   x3
D|----2--------10--------7-------9-9-9-9-1010-9-9-----|
A|----2--x16---10--x16---7--x8---9-9-9-9-9-9-9-9------|
E|----0--------8---------5-------7-7-7-7-7-7-7-7------|

Bridge:

Guitar 1
e|----------------------------------------------------|
B|----------------------------------------------------|
G|----------------------------------------------------|
D|----2-2-2-2-2-2-2-2-2-2-----------------------------|
A|----2-2-2-2-2-2-2-2-2-2-----------------------------|
E|----0-0-0-0-0-0-0-0-0-0-----------------------------|
       palm mute

Guitar 2 
e|-----0-0-0-0-12-0-0-0-8-0-0-0-10-0-0----------------|
B|----------------------------------------------------|
G|----------------------------------------------------|   x6
D|----------------------------------------------------|
A|----------------------------------------------------|
E|----------------------------------------------------|
     play this very quietly, repeat about 6 times  
     

e|--------------------------------------------------------------------------------------------|
B|--------------------------------------------------------------------------------------------|
G|--------------------------------------------------------------------------------------------|x5
D|--2--2--x-x--2--2--x-x--10-10--x-x--10-10--x-x--7--7--x-x--7--7--x-x--9--9--x-x--9--9--x-x--|
A|--2--2--x-x--2--2--x-x--10-10--x-x--10-10--x-x--7--7--x-x--7--7--x-x--9--9--x-x--9--9--x-x--|
E|--0--0--x-x--0--0--x-x--8--8---x-x--8--8---x-x--5--5--x-x--5--5--x-x--7--7--x-x--7--7--x-x--|



Thats the end, enjoy and god bless
            

comments powered by Disqus
↑ Back to top | Showbread Tabs for The End Anorexia. Lyrics for acoustic guitar and electric guitar. Tablatures and chords are parodies/interpretations of the original songs. You may use it for private study, scholarship, research or language learning purposes only