>
 >
The Dirt Alpha

The Dirt Alpha Guitar Tabs

Showbread - The Dirt Alpha chords, tabs, tablatures, lyrics

Guitar lessons | Add/correct | Request | Top 50 tabs Artists:  A B C D E F G H I J K L M N O P Q R S T U V W X Y Z 0-9

The Dirt Alpha Guitar Tabs – Showbread

CD, Sheet music, Poster

Do you like The Dirt Alpha? Share with your friends now
Tabs
----------------------------------------------------------------------------
                       The Dirt (Alpha) - Showbread
----------------------------------------------------------------------------

but Showbread released this on their new album under a new name and with new lyrics and its 
amazing. Enjoy.

Tuning: Standard (EADGBe)

Verse 1:

 Before there was anything I loved you endlessly
e|-----------------------------------------------------|
B|-----------------------------------------------------|
G|-----------------------------------------------------|
D|-222222333222-000000222333-222222333222-000000000000-|
A|-333333333333-222222222222-000000000000-222222222222-|
E|----------------------------------------333333333333-|

There are no words to make way for this truth this love for you inside of Me
e|-----------------------------------------------------|
B|-----------------------------------------------------|
G|-----------------------------------------------------|
D|-222222333222-000000222333-222222333222-000000000000-|
A|-333333333333-222222222222-000000000000-222222222222-|
E|----------------------------------------333333333333-|

And if I paint a sky with bronze or blanket you with stars
e|-----------------------------------------------------|
B|-----------------------------------------------------|
G|-----------------------------------------------------|
D|-222222333222-000000222333-222222333222-000000000000-|
A|-333333333333-222222222222-000000000000-222222222222-|
E|----------------------------------------333333333333-|

It's not enough to prove to you this love inside My heart
e|-----------------------------------------------------|
B|-----------------------------------------------------|
G|-----------------------------------------------------|
D|-222222333222-000000222333-222222333222-000000000000-|
A|-333333333333-222222222222-000000000000-222222222222-|
E|----------------------------------------333333333333-|

Chorus:

What if I knit you together inside your mother, with artistry?
e|-----------------------------------------------------|
B|------------------------------5-----5----------------|
G|---------------------------555555555555-222222222222-|
D|-333333333333-555555555555-555555555555-222222222222-|
A|-333333333333-555555555555-333333222222-000000000000-|
E|-111111111111-333333333333---------------------------|

Crafted in My very image because I need you here with Me
e|-----------------------------------------------------|
B|------------------------------5-----5----------------|
G|---------------------------555555555555-222222222222-|
D|-333333333333-555555555555-555555555555-222222222222-|
A|-333333333333-555555555555-333333222222-000000000000-|
E|-111111111111-333333333333---------------------------|

           Be near me
e|---------------------------|
B|---------------------------|
G|--------------000000000000-|
D|-333333333333-000000000000-|
A|-333333333333-222222222222-|
E|-111111111111-333333333333-|


Verse 2:
  What if I gave everything just to have you close to Me?
e|-----------------------------------------------------|
B|-----------------------------------------------------|
G|-----------------------------------------------------|
D|-222222333222-000000222333-222222333222-000000000000-|
A|-333333333333-222222222222-000000000000-222222222222-|
E|----------------------------------------333333333333-|

What if My love was the only truth, would you believe it could set you free?
e|-----------------------------------------------------|
B|-----------------------------------------------------|
G|-----------------------------------------------------|
D|-222222333222-000000222333-222222333222-000000000000-|
A|-333333333333-222222222222-000000000000-222222222222-|
E|----------------------------------------333333333333-|


Chorus:
   There isn't anything that you could ever do
e|-----------------------------------------------------|
B|------------------------------5-----5----------------|
G|---------------------------555555555555-222222222222-|
D|-333333333333-555555555555-555555555555-222222222222-|
A|-333333333333-555555555555-333333222222-000000000000-|
E|-111111111111-333333333333---------------------------|

Not death or life, not depth or height can ever take My love from you
e|-----------------------------------------------------|
B|------------------------------5-----5----------------|
G|---------------------------555555555555-222222222222-|
D|-333333333333-555555555555-555555555555-222222222222-|
A|-333333333333-555555555555-333333222222-000000000000-|
E|-111111111111-333333333333---------------------------|

           From you
e|---------------------------|
B|---------------------------|
G|--------------000000000000-|
D|-333333333333-000000000000-|
A|-333333333333-222222222222-|
E|-111111111111-333333333333-|


Bridge:

There is no greater love than this that a man should lay his life down for his friends
e|-----------------------------------------------------|
B|-----------------------------------------------------|
G|-555555555555-555555555555-222222222222-000000000000-|
D|-555555555555-555555555555-222222222222-000000000000-|
A|-333333333333-222222222222-000000000000-222222222222-|
E|----------------------------------------333333333333-|

And though I already have I'd do it all again
e|-----------------------------------------------------|
B|-----------------------------------------------------|
G|-555555555555-555555555555-222222222222-000000000000-|
D|-555555555555-555555555555-222222222222-000000000000-|
A|-333333333333-222222222222-000000000000-222222222222-|
E|----------------------------------------333333333333-|


Verse 3:

Regenerative are My bones and My skin, My nerves are dismayed by intrusion
e|-----------------------------------------|
B|-----------------------------------------|
G|-----------------------------------------|
D|---2-3-2----0-2-3----2-3-2--000000000000-|
A|-33-3-3-3-22-2-2-2-00-0-0-0-222222222222-|
E|----------------------------333333333333-|

Yet if you are gone, for short or for long it all aches with no sought restitution
e|-----------------------------------------|
B|-----------------------------------------|
G|-----------------------------------------|
D|---2-3-2----0-2-3----2-3-2--000000000000-|
A|-33-3-3-3-22-2-2-2-00-0-0-0-222222222222-|
E|----------------------------333333333333-|


Chorus:

I would do anything for you it's obvious and in plain view
e|-----------------------------------------------------|
B|------------------------------5-----5----------------|
G|---------------------------555555555555-222222222222-|
D|-333333333333-555555555555-555555555555-222222222222-|
A|-333333333333-555555555555-333333222222-000000000000-|
E|-111111111111-333333333333---------------------------|
PM|............................. ..... ...............

Like the life that I've laid before you everything that I've done is for you
e|-----------------------------------------------------|
B|------------------------------5-----5----------------|
G|---------------------------555555555555-222222222222-|
D|-333333333333-555555555555-555555555555-222222222222-|
A|-333333333333-555555555555-333333222222-000000000000-|
E|-111111111111-333333333333---------------------------|
PM|............................. ..... ...............

e|---------------------------|
B|---------------------------|
G|--------------000000000000-|
D|-333333333333-000000000000-|
A|-333333333333-222222222222-|
E|-111111111111-333333333333-|


Verse 4:

So look for me with open eyes knock and I will open the door
e|-----------------------------------------------------|
B|-----------------------------------------------------|
G|-----------------------------------------------------|
D|-222222333222-000000222333-222222333222-000000000000-|
A|-333333333333-222222222222-000000000000-222222222222-|
E|----------------------------------------333333333333-|

I have loved you before there was time and I will love you forever more
e|---------------------------------------------------3-|
B|---------------------------------------------------3-|
G|---------------------------------------------------0-|
D|-222222333222-000000222333-222222333222-000000000000-|
A|-333333333333-222222222222-000000000000-222222222222-|
E|----------------------------------------333333333333-|

Even though I tabbed this song originally for Never An Oceanographer it is still correct 
I believe its pretty much perfect.
God Bless and my raw rock kill you forever and ever amen.
Brandon Canning

| /  slide up
| \  slide down
| h  hammer-on
| p  pull-off
| ~  vibrato
| +  harmonic
| x  Mute note
============================================================================





Comments


Popular Showbread tabs & chords
Lost Connection With The Head Bass Tabs
Age Of Reptiles Chords
Hydra Chords
Matthias Replaces Judas Chords
Matthias Replaces Judas 1 Chords
George Romero Will Be At Our Wedding Tabs
Mouth Like A Magazine Tabs
Mouth Like A Magazine 4 Tabs
The Pig Nervosa 2 Tabs
Age Of Reptiles Ukulele


Song lyrics



↑ Back to top | Tablatures and chords are parodies/interpretations of the original songs. You may use it for private study, scholarship, research or language learning purposes only
© 2014 AZChords.com Contact us | Privacy policy | DMCA | Add/correct tabs | Request tabs | Top 50 tabs