» » »

Bell Jar Tabs (ver.1)

Artists:  A B C D E F G H I J K L M N O P Q R S T U V W X Y Z # 

Bell Jar Tabs (ver.1)

Showbread
Rating:
5/5 (3 votes)

Tabs too difficult? Try these video lessons and learn fast.
                Band-Showbread
Song-The Bell Jar

                          Tuning- Standard (Eadgbe)
      Im Surprised there wasnt a tab for this song, its a great song, and showbread is a 
big band. I hope you enjoy :)

Intro
Guitar 1
E------------------------------------------------------------------------|
B------------------------------------------------------------------------|
G--44444--xxx---4--x-44-------44444----55555-2---------------------------|
D--44444--xxx---4--x-44-------44444----55555-2---------------------------|
A--22222--xxx---2--x-22-------22222----33333-0---------------------------|
E------------------------------------------------------------------------|

E------------------------------------------------------------------------|
B------------------------------------------------------------------------|
G--44444--xxx---4--x-44-------44444----99999999--------------------------|
D--44444--xxx---4--x-44-------44444----99999999--------------------------|
A--22222--xxx---2--x-22-------22222----77777777--------------------------|
E------------------------------------------------------------------------|
                                       ^^^^^^^^
                                       (Bend harder as the chord goes on)

Intro
Guitar 2
(0:08)
E------------------------------------------------------------------------|
B------------------------------------------------------------------------|
G------------------------------------------------------------------------|
D---99999-------9---9--------99999--10101010--7--------------------------|
A---99999-------9---9--------99999--10101010--7--------------------------|
E---77777-------7---7--------77777---8-8-8-8--5--------------------------|


E------------------------------------------------------------------------|
B------------------------------------------------------------------------|
G-------------------------------------99999999---------------------------|
D---99999-------9---9--------99999----99999999---------------------------|
A---99999-------9---9--------99999----77777777---------------------------|
E---77777-------7---7--------77777---------------------------------------|
                                      ^^^^^^^^
                                      (Bend harder as you go on that chord)

Guitar 1
Intro Cont.
E------------------------------------------------------------------------|
B------------------------------------------------------------------------|
G--44444--xxx---4--x-44-------44444----55555-2---------------------------|
D--44444--xxx---4--x-44-------44444----55555-2---------------------------|
A--22222--xxx---2--x-22-------22222----33333-0---------------------------|
E------------------------------------------------------------------------|

E------------------------------------------------------------------------|
B------------------------------------------------------------------------|
G--44444--xxx---4--x-44-------44444----99999999----99999999--------------|
D--44444--xxx---4--x-44-------44444----99999999----99999999--------------|
A--22222--xxx---2--x-22-------22222----77777777----77777777--------------|
E------------------------------------------------------------------------|
                                       ^^^^^^^^    ^^^^^^^^

Guitar 2
Intro cont.
E------------------------------------------------------------------------|
B------------------------------------------------------------------------|
G---------------------------------------55555--2-------------------------|
D--22222--------2----22---------2222----55555--2-------------------------|
A--22222--------2----22---------2222----33333--0-------------------------|
E--00000--------0----00---------0000-------------------------------------|

E------------------------------------------------------------------------|
B------------------------------------------------------------------------|
G---------------------------------------99999999-----99999999------------|
D--22222--------2----22---------2222----99999999-----99999999------------|
A--22222--------2----22---------2222----77777777-----77777777------------|
E--00000--------0----00---------0000-------------------------------------|
                                        ^^^^^^^^     ^^^^^^^^

Verse 1
Bass line enters
(0:46)Guitars enters
Guitar 1 and Guitar 2 play the same riff
Chorus
E------------------------------------------------------------------------|
B------------------------------------------------------------------------|
G---3-3-3-3-3-3-3-3-2-2-2-2-2-2-2-2--------------------------------------|
D---3-3-3-3-3-3-3-3-2-2-2-2-2-2-2-2----2--5---22---5--22--5--22---5--2---|
A---1-1-1-1-1-1-1-1-0-0-0-0-0-0-0-0----2--5---22---5--22--5--22---5--2---|
E--------------------------------------0--3---00---3--00--3--00---3--0---|
                                          ^        ^

The second time its
Guitar 1
E------------------------------------------------------------------------|
B------------------------------------------------------------------------|
G---3-3-3-3-3-3-3-3-2-2-2-2-2-2-2-2--------------------------------------|
D---3-3-3-3-3-3-3-3-2-2-2-2-2-2-2-2----2--5---22---5--22--5--22---5--2---|
A---1-1-1-1-1-1-1-1-0-0-0-0-0-0-0-0----2--5---22---5--22--5--22---5--2---|
E--------------------------------------0--3---00---3--00--3--00---3--0---|
                                          ^        ^

Guitar 2
E------------------------------------------------------------------------|
B------------------------------------------------------------------------|
G---3-3-3-3-3-3-3-3---3(Bend)--------------------------------------------|
D---3-3-3-3-3-3-3-3--------------------2--5---22---5--22--5--22---5--2---|
A---1-1-1-1-1-1-1-1--------------------2--5---22---5--22--5--22---5--2---|
E--------------------------------------0--3---00---3--00--3--00---3--0---|
                                          ^        ^


Post Chorus
Guitar 2
You also continue this riff for Verse 2
E------------------------------------------------------------------------|
B------------------------------------------------------------------------|
G---9999-----3-3---2-2--222--7777---3--3--3--3----2----------------------|
D---xxxx-----x-x---2-2--222--xxxx---x--x--x--x----2----------------------|
A---7777-----1-1---0-0--000--5555---1--1--1--1----0----------------------|
E------------------------------------------------------------------------|

Guitar 1
Verse 2/solo
E------------------------------------------------------------------------|
B----17b--15----------------------17b--15--------------------------------|
G------------16----14--12-14-15-----------16---11>12--12>14--16-16-------|
D------------------------------------------------------------------------|
A------------------------------------------------------------------------|
E------------------------------------------------------------------------|


E---------------15p12------15p12------15p12------15p12-------------------|
B--17b--15------------15p12------15p12------15p12------15p12--17-19b-17--|
G----------16------------------------------------------------------------|
D------------------------------------------------------------------------|
A------------------------------------------------------------------------|
E------------------------------------------------------------------------|


Post verse 2
Guitar 2
(1:25-1:27)
E--------------------|
B--------------------|
G-3-3-3-3-3-3---2----|
D-3-3-3-3-3-3---2----|
A-1-1-1-1-1-1---0----|
E--------------------|

Post verse 2
Guitar 1
E--------------------|
B-17--19b--17--------|
G--------------------|
D--------------------|
A--------------------|
E--------------------|

Post verse 2 cont.
Guitar 1 and 2
(1:29-1:46)
E------------------------------------------------------------------------|
B------------------------------------------------------------------------|
G---3-3-3-3-3-3-3-3-2-2-2-2-2-2-2-2-6-6-6-6-6-6-6-6-----------------(X2)-|
D---3-3-3-3-3-3-3-3-2-2-2-2-2-2-2-2-6-6-6-6-6-6-6-6--4-4-4-4-4-4-4-4-----|
A---1-1-1-1-1-1-1-1-0-0-0-0-0-0-0-0-4-4-4-4-4-4-4-4--4-4-4-4-4-4-4-4-----|
E----------------------------------------------------2-2-2-2-2-2-2-2-----|

Repeat Intro

Then Chorus

Bridge
Guitar 2
(2:16)
"Languages must be organic.."
E--------------------------------------------------------------|
B--------------------------------------------------------------|
G--------------------------------------------------------------|
D---7-7-7-7-7-7-7-7--6-6-6-6-6-6-6-6>11-11-11-11-11-11-11-11---|
A---7-7-7-7-7-7-7-7--7-7-7-7-7-7-7-7>12-12-12-12-12-12-12-12---|
E--------------------------------------------------------------|


E-----------------------------------------------------|
B-----------------------------------------------------|
G-----------------------------------------------------|
D---11-11-11-14-14-14-12-12-11-11-11-14-14-14-12-12---|
A---11-11-11-11-11-11-11-11-9--9--9--9--9--9--9--9----|
E-----------------------------------------------------|

E--------------------------------------------------|
B--------------------------------------------------|
G--------------------------------------------------|
D--9-9-9-9-11-11-11-11-12-12-12-12-12-12-12-12-----|
A--9-9-9-9-9--9--9--9--9--9--9--9--9--9--9--9------|
E--------------------------------------------------|

Post bridge
Guitar 1 and 2
E--------|
B--------|
G---2----|
D---2----|x alot
A---0----|
E--------|
    .
Post bridge cont.
Guitar 1 and 2
E------------------------------|
B------------------------------|
G---3-(Let ring)---2---3-------|
D---3--------------2---3---2---|
A---1--------------0---1---2---|
E--------------------------0---|

(3:10)
E----------|
B----------|
G----------|
D---222----|x alot
A---222----|
E---000----|

cool bass riff comes in


Ending verse
Guitar 1
E------------------------------------------------------------------------|
B------------------------------------------------------------------------|
G---------------------------3333-----------------------------------------|
D--2--22----5-7----2--22----3333----2-22---5-7----5-5555----2------------|
A--2--22----5-7----2--22----1111----2-22---5-7----5-5555----2------------|
E--0--00----3-5----0--00------------0-00---3-5----3-3333----0------------|


Ending verse/solo
Guitar 2
E------------------------------------------------------------------------|
B------------------------------------------------------------------------|
G--16b-16-14------------------14h16---------16b-19--16-14-16-12b-12-9---9|
D-------------14--------14h16-------14h16-----------------------------12-|
A-----------------14h16--------------------------------------------------|
E------------------------------------------------------------------------|

E------------------------------------------------------------------------|
B----15b-15b-15b----18b-18b-18b-18--20b--17b-15--------------------------|
G------------------------------------------------------------------------|
D------------------------------------------------------------------------|
A------------------------------------------------------------------------|
E------------------------------------------------------------------------|


palm mute.......
mute note  x
hammer on  h
pull off   p
Bend chord ^
Bend note  b


Im not 100% bout the last solo but you can jus improv it. The beggining of this song is 
to play so i hope you enjoy that:)


(Lyrics)

To be common place would be unique,
but we're so obscure we're incoherent,
like toungeless vigilantes choking
just to make you choke. Rattling, rattling.
No nails to hold ideas in place,
no expression on your face.

Music and her patrons are dead and
irrelevant, like osteoporosis, she is
brittle. She is broken.

Static comes through synthesizers, megaphones
and drum machines.
Beauty sounds like smashed guitars, and several
references to feedback. Rattling, rattling.
No surgery to save your life.
No promise that everything's all right.

Music and her patrons are dead and
irrelevant, like osteoporosis, she is
brittle. She is broken.

Languages must be organic,
because like flies they fall and die.
Music now sleeps.
Languages must be organic,
because like flies they fall and die.
Music now sleeps,
with Latin and Aramaic.
It's over, it's over.
No more waiting for something to live for.
It's over, it's over.
Everything is dying and we want something more.


Raw Rock Kills!
            
Tabs too difficult? Try these video lessons and learn fast.




comments powered by Disqus
↑ Back to top | Tablatures and chords are parodies/interpretations of the original songs. You may use it for private study, scholarship, research or language learning purposes only