» » »

Nothing Matters Anymore Tabs (ver.1)

Artists:  A B C D E F G H I J K L M N O P Q R S T U V W X Y Z # 

Nothing Matters Anymore Tabs (ver.1)

Showbread
Rating:
4/5 (2 votes)

Hard to play? Try these video lessons and learn fast.
                -------------------------------------------------------------------------------
                             NOTHING MATTER ANYMORE - Showbread
-------------------------------------------------------------------------------

Tuning: Standard

First verse:
e|--------------------------------------------|
B|--------------------------------------------|
G|--------------------------------------------|
D|--------------------------------------------| x9
A|--------------------------------------------|
E|-0---10-10-10-10-10-10-0---10-10-10-10-10-10|

Pre-chorus:
Guitar One:
e|---------------------------------------|
B|---------------------------------------|
G|--7777777---9999999---4444444---4444444|
D|--7777777---9999999---4444444---4444444| x2
A|--5555555---7777777---2222222---2222222|
E|---------------------------------------|

Guitar Two:
e|---------------------------------------|
B|---------------------------------------|
G|--5555555---7777777---2222222---2222222|
D|--5555555---7777777---2222222---2222222| x2
A|--3333333---5555555---0000000---0000000|
E|---------------------------------------|

Chorus:
e|---------------------------------------------------------------------------|
B|---------------------------------------------------------------------------|
G|----------------------------------5-5-5-5-5-5-5-5-5-5-5-5-5-5-5-5----------|
D|--2-2-2-2-2-2-2-2-2-2-2-2-2-2-2-2-5-5-5-5-5-5-5-5-5-5-5-5-5-5-5-5----------|
A|--2-2-2-2-2-2-2-2-2-2-2-2-2-2-2-2-3-3-3-3-3-3-3-3-3-3-3-3-3-3-3-3----------|
E|--0-0-0-0-0-0-0-0-0-0-0-0-0-0-0-0------------------------------------------|

e|---------------------------------------------------------------------------|
B|---------------------------------------------------------------------------|
G|---------------------------------------------------------------------------|
D|--7-7-7-7-7-7-7-7-7-7-7-7-7-7-7-7-2-2-2-2-2-2-2-2-2-2-2-2-2-2-2-2----------|
A|--7-7-7-7-7-7-7-7-7-7-7-7-7-7-7-7-2-2-2-2-2-2-2-2-2-2-2-2-2-2-2-2----------|
E|--5-5-5-5-5-5-5-5-5-5-5-5-5-5-5-5-0-0-0-0-0-0-0-0-0-0-0-0-0-0-0-0----------|

Bridge:
e|--------------------------------------------------------------------------------|
B|--------------------------------------------------------------------------------|
G|-77777777777-777-1010101010101010101010-101010-44444444444-444-99999999999-999--|
D|-77777777777-777-1010101010101010101010-101010-44444444444-444-99999999999-999--|
A|-55555555555-555-8-8-8-8-8-8-8-8-8-8-8--8-8-8--22222222222-222-77777777777-777--|
E|--------------------------------------------------------------------------------|

Second Verse:
e|--------------------------------------------|
B|--------------------------------------------|
G|--------------------------------------------|
D|--------------------------------------------| x5
A|--------------------------------------------|
E|-0---10-10-10-10-10-10-0---10-10-10-10-10-10|

Chorus:
e|---------------------------------------------------------------------------|
B|---------------------------------------------------------------------------|
G|----------------------------------5-5-5-5-5-5-5-5-5-5-5-5-5-5-5-5----------|
D|--2-2-2-2-2-2-2-2-2-2-2-2-2-2-2-2-5-5-5-5-5-5-5-5-5-5-5-5-5-5-5-5----------|
A|--2-2-2-2-2-2-2-2-2-2-2-2-2-2-2-2-3-3-3-3-3-3-3-3-3-3-3-3-3-3-3-3----------|
E|--0-0-0-0-0-0-0-0-0-0-0-0-0-0-0-0------------------------------------------|

e|---------------------------------------------------------------------------|
B|---------------------------------------------------------------------------|
G|---------------------------------------------------------------------------|
D|--7-7-7-7-7-7-7-7-7-7-7-7-7-7-7-7-2-2-2-2-2-2-2-2-2-2-2-2-2-2-2-2----------|
A|--7-7-7-7-7-7-7-7-7-7-7-7-7-7-7-7-2-2-2-2-2-2-2-2-2-2-2-2-2-2-2-2----------|
E|--5-5-5-5-5-5-5-5-5-5-5-5-5-5-5-5-0-0-0-0-0-0-0-0-0-0-0-0-0-0-0-0----------|

Solo (I couldn't tab the solo, but here's the rythm part.)
e|---------------------------------------|
B|---------------------------------------|
G|--5555555---7777777---2222222---2222222|
D|--5555555---7777777---2222222---2222222| x4
A|--3333333---5555555---0000000---0000000|
E|---------------------------------------|


Bridge 2:
e|-----------------------------------------------------------------|
B|-----------------------------------------------------------------|
G|-9999999999999999777777777777777755555555555555554444444444444444|
D|-9999999999999999777777777777777755555555555555554444444444444444| x2
A|-7777777777777777555555555555555533333333333333332222222222222222|
E|-----------------------------------------------------------------|

Ending (3 times):
e|-----------------------------------------------------------------|
B|-----------------------------------------------------------------|
G|-----------------------------------------------------------------|
D|--2-2-2-2-2-2-2-2-2-2-2-2-2-2-2-2-8-8-8-8-8-8-8-8-8-8-8-8-8-8-8-8|
A|--2-2-2-2-2-2-2-2-2-2-2-2-2-2-2-2-8-8-8-8-8-8-8-8-8-8-8-8-8-8-8-8|
E|--0-0-0-0-0-0-0-0-0-0-0-0-0-0-0-0-6-6-6-6-6-6-6-6-6-6-6-6-6-6-6-6|

e|-----------------------------------------------------------------|
B|-----------------------------------------------------------------|
G|-----------------------------------------------------------------|
D|--7-7-7-7-7-7-7-7-7-7-7-7-7-7-5~--2-2-2-2-2-2-2-2-2-2-2-2-x-3-4-5|
A|--7-7-7-7-7-7-7-7-7-7-7-7-7-7-5~--2-2-2-2-2-2-2-2-2-2-2-2-x-3-4-5|
E|--5-5-5-5-5-5-5-5-5-5-5-5-5-5-3~--0-0-0-0-0-0-0-0-0-0-0-0-x-1-2-3|
            
Hard to play? Try these video lessons and learn fast. | Correct




comments powered by Disqus
↑ Back to top | Tablatures and chords are parodies/interpretations of the original songs. You may use it for private study, scholarship, research or language learning purposes only