» » »

Showbread, Mouth Like A Magazine Bass tabs (ver.1)

Artists:  A B C D E F G H I J K L M N O P Q R S T U V W X Y Z # 

Mouth Like A Magazine Bass tabs (ver.1)

Showbread Tabs
 Rating:
4.3/5 (6 votes)
Mouth Like A Magazine lessons Tabs too difficult? Try these video lessons and learn fast
                
#  or research. This file may not be licensed, sold, or reproduced in a     #     
#  public performance without the copyright holder's explicit permission.   #
Hope you like it, its my first tab

-Josh

/= slide down
= slide up
~= let the note ring
(0:11)
INTRO 
G|--------------------------------------------------|
D|--------------------------------------------------|
A|-44-444-444-2-44----------------------------------|repeat 2x
E|------------------3--22-222-222-02320-------------|
(0:40)
VERSE  
G|------------------------------------------------------------------------|
D|------64------------------------24542---64-----------------------24542--|
A|-4-4-----64---44--------------24-----4-4--64---44--------------24-------|
E|------------6----02-22-0-22-02---------------6----02-22-0-22-02---------|
(0:55)
CHORUS 
G|----------------------------------------|
D|----------------------------------------|
A|-44-444-444-2-44------------------------|repeat 2x
E|-----------------3--22-222-222-02320----|
(1:32)
VERSE
G|------------------------------------------------------------------------|
D|------64------------------------24542---64-----------------------24542--|
A|-4-4-----64---44--------------24-----4-4--64---44--------------24-------|
E|------------6----02-22-0-22-02---------------6----02-22-0-22-02---------|
(1:47)
INTERLUDE 
G|------------------|
D|------------------|
A|------------------|
E|-222222-222222----|
(1:54)
CHORUS 
G|----------------------------------------|
D|----------------------------------------|
A|-44-444-444-2-44------------------------|repeat 4x
E|-----------------3--22-222-222-02320----|
(2:38)
BRIDGE 
G|----------------------------------------------------------|
D|----------------------------------------------------------|
A|----------------22222-022222-2--------------44444-244444--|repeat 2x
E|-022222-022222-2--------------00000-000000-0--------------| 
(3:11) 
CHORUS
G|-----------------------------------------------------------|
D|-----------------------------------------------------------|
A|---------------------44-444-444-2-44-----------------------|
E|-3-22-222-222-02320------------------3-22-222-222-02320----|
(3:22)
CHORUS 2
G|-------------------------------------------------------------------------|
D|------------------------------------------245-42-------------------------|
A|-44-444-444-2-44---------------------44-44------42-----------------------|
E|-----------------3--22-222-222-02320----------------3-22-222-222-02320---|
(3:37)
CHORUS 3
G|---------------------------------------------------------------------|
D|-------------24542-------------24542--------------24542--------------|
A|-44444444444-------44444444444-------44444444-----------44444444444--|
E|---------------------------------------------11/1--------------------|
(3:51) 
ENDING
G|----------------|
D|-24-5-4-2-------|
A|----------2-----|
E|----------------|
            
Submit corrections

comments powered by Disqus
↑ Back to top | Showbread Bass for Mouth Like A Magazine. Lyrics for acoustic guitar and electric guitar. Tablatures and chords are parodies/interpretations of the original songs. You may use it for private study, scholarship, research or language learning purposes only