» » »

Mouth Like A Magazine Tabs (ver.1)

Artists:  A B C D E F G H I J K L M N O P Q R S T U V W X Y Z # 

Mouth Like A Magazine Tabs (ver.1)

Showbread
Rating:
5/5 (10 votes)

Hard to play? Try these video lessons and learn fast.
                Guitar Tab
Band:Showbread
Album:No Sir, Nihilism Is Not Practical
Tuning: Standard

Intro (0:04-0:25)
|------------------------------------|
|------------------------------------|
|------------------------------------|
|--66-666-666-4/66-------------------|
|--44-444-444-2/44----44-444-444-44--|
|------------------3B-22-222-222-02--|
                    
|---------------------------------------|
|---------------------------------------|
|---------------------------------------|
|--66-666-666-4/66----------------------|X2
|--44-444-444-2/44----44-444-444-44544--|
|------------------3B-22-222-222-02320--|

Verse1
keyguitar(0:25-0:40)
guitar part(0:40-0:56)

|----------12--------12--------12----------12--12-12-11-11-12-12-11-11--|
|---13-14----14-13-14--14-13-14---14-13-14---14-------------------------|
|-----------------------------------------------------------------------|
|-----------------------------------------------------------------------|X2
|-----------------------------------------------------------------------|
|-----------------------------------------------------------------------|

Chorus (0:56-1:10)

|---------------------------------------|
|---------------------------------------|
|---------------------------------------|
|--66-666-666-4/66----------------------|X2
|--44-444-444-2/44----44-444-444-44544--|
|------------------3B-22-222-222-02320--|

Verse2
keyguitar(1:17-1:32)
guitar part(1:32-1:48)

Bridge (1:48-1:51)
|-----------------|
|-----------------|
|-----------------|
|-----------------|
|-444444-444444---|
|-222222-222222---|


Chorus (1:55-2:25)
|-----------------------------------------|
|-----------------------------------------|
|-----------------------------------------|
|----66-666-666-4/66----------------------|X4
|----44-444-444-2/44----44-444-444-44544--|
|-\/-----------------3B-22-222-222-02320--|

Drummer, Keyguitar, and Vox(2:25-2:36)

Bridge (2:39-3:08)
|------------------------------------------------------------|
|------------------------------------------------------------|
|------------------------------------------------------------|
|---------------444444-444444---------------666666-666666666-| X2
|-444444-444444-222222-222222-222222-222222-444444-444444444-|
|-022222-022222---------------000000-000000------------------|

Chorus (3:09-3:38)
|---------------------------------------|
|---------------------------------------|
|---------------------------------------|
|--66-666-666-4/66----------------------|X4
|--44-444-444-2/44----44-444-444-44544--|
|------------------3B-22-222-222-02320--|

half way through the chorus the other guitarist plays the verse riff

Outro (3:38-end)
|-------------------------------------|
|-------------------------------------|
|-------------------------------------|
|--666666666666-----------------------| X4
|--444444444444-7-9-10-9-7------------|
|-------------------------------------|

End On
|---------|
|---------|
|---------|
|--4------|
|--2------|
|---------|

dude, Showbread is friggon raw. I know them they are all from my hometown. marvin goes
to my church. Anywayz i hope u liked the tab and please rate and comment please. e-mail

The Q
            
Hard to play? Try these video lessons and learn fast. | Correct




comments powered by Disqus
↑ Back to top | Tablatures and chords are parodies/interpretations of the original songs. You may use it for private study, scholarship, research or language learning purposes only