» » »

Hydra Tabs (ver.1)

Artists:  A B C D E F G H I J K L M N O P Q R S T U V W X Y Z # 

Hydra Tabs (ver.1)

Showbread
Rating:
0/5 (0 votes)

Hard to play? Try these video lessons and learn fast.
                Showbread
"Hydra" from "Who Can Know It?"

Standard tuning

0:00 Intro  2x
       Decisions are a vacuum...
e|------0-----0----0-----3------1------------------------------------|
B|------1-----0----0-----3------2------------------------------------|
G|------0-----0----4-----0------1------------------------------------|
D|----2------2----4-----0------0-------------------------------------|
A|--3------2-----2-----2------0--------------------------------------|
E|-------------------------------------------------------------------|
    C      Em    B     G      D

e|------0-----3------------------------------------------------------|
B|------1-----3------------------------------------------------------|
G|------0-----0------7-----------------------------------------------|
D|----2------0-------7-------2---------------------------------------|
A|--3------2---------5-------2---------------------------------------|
E|---------------------------0---------------------------------------|
    C      G         D5 12x  E 4x


0:36 2x, 1:39, 2:40 2x  Chords >Riff A<
  Relieve the sentinels...
e|-------------------------------------------------------------------|
B|-------------------------------------------------------------------|
G|-------------------------------------------------------------------|
D|-------------------------------------------------------------------|
A|-------------------------------------------------------------------|
E|-------------------------------------------------------------------|
Strum Pattern: \ \/   \ \/   \ \/ /\/   \ \/   \ \/   \ \/ /\/
               G      D      Em         C      G      D

e|-------------------------------------------------------------------|
B|-------------------------------------------------------------------|
G|-------------------------------------------------------------------|
D|-------------------------------------------------------------------|
A|-------------------------------------------------------------------|
E|-------------------------------------------------------------------|
Strum Pattern: \ \/   \ \/   \ \/ /\/   \ \/   \ \/   \ \/ /\/
               G      D      Em         C      G      D



0:52  1:55  3:31  Single Notes >Riff B<
 So if we ever make...
e|-------------------------------------------------------------------|
B|-------------------------------------------------------------------|
G|-------------------------------------------------------------------|
D|--------------------2----------------------------------------------|
A|--2---3---5---------2----------------------------------------------|
E|--------------3--2--0----------------------------------------------|
    8x  8x  8x



1:04 Single Notes >Riff C<
 Sodden  waif slave...
   Left Guitar
e|-------------------------------------------------------------------|
B|------0-------0---3---1---0----------------------------------------|
G|--0---------------------------2------------------------------------|
D|----------4--------------------------------------------------------|
A|-------------------------------------------------------------------|
E|-------------------------------------------------------------------|
 |  8x  8x  8x  4x  4x  8x  8x  16x
 |                          hammer or pull off in each of these last two
 |  Right Guitar
e|-------------------------------------------------------------------|
B|-------------------------------------------------------------------|
G|-------------------------------------------------------------------|
D|------------------0-----------0------------------------------------|
A|--3-------2-----------3--------------------------------------------|
E|------0-------3-----------3----------------------------------------|
 |  8x  8x  8x  4x  4x  8x  8x  16x

1:14, 1:30 Lead Guitar
e|-------------------------------------------------------------------|
B|---9/13---13-12---12-10--------------------------------------------|
G|-------------------------------------------------------------------|
D|-------------------------------------------------------------------|
A|-------------------------------------------------------------------|
E|-------------------------------------------------------------------|

1:39 Chords, >Riff A<
Relieve the sentinels...

1:55 Single Notes, >Riff B<
So if we ever...

2:07 - 2:24 no guitar (bass only)
You're like a man who...

2:24 Single Notes >Riff C<
Wound up the lattice...
Single strum of chords at end of first time through, then play second time through with 
normal strumming.

2:33 Lead Guitar
e|-------------------------------------------------------------------|
B|---9/13---13-12---12-10--------------------------------------------|
G|-------------------------------------------------------------------|
D|-------------------------------------------------------------------|
A|-------------------------------------------------------------------|
E|-------------------------------------------------------------------|

2:40 Chords, >Riff A< 2x
If you ask me three times...  then guitar solo

    2:57-3:48 guitar solo

3:31 Single Notes, >Riff B<

3:42 (bass only)


Not perfect, but close.  Go to showbread.net, download the multi-track files from the 
songs and listen to just the guitars to fine tune this as needed.

Thanks.
            
Hard to play? Try these video lessons and learn fast. | Correct




comments powered by Disqus
↑ Back to top | Tablatures and chords are parodies/interpretations of the original songs. You may use it for private study, scholarship, research or language learning purposes only