» » »

Dinosaur Bones Tabs (ver.1)

Artists:  A B C D E F G H I J K L M N O P Q R S T U V W X Y Z # 

Dinosaur Bones Tabs (ver.1)

Showbread
Rating:
4/5 (2 votes)

Hard to play? Try these video lessons and learn fast.
                
Use power chords and listen to the song for the rhythm.

Intro
                      
G on the bass

Verse

G A# G A# G

Chorus

G C G

Pre-Chorus (Starts at "When I answer to...")

D C G 3x

D C A

D C B A

Instrumental Bridge (Slide into chord where noted by "/")

G / F / G / F C G / F / 2x

D C G / F / G

D C A D C B A

e -------------------------------------------------------------------------|
B -------------------------------------------------------------------------|
G -------------------------------------------------------------------------|
D -5-5-5-5-5-5-5-3-5-5-5-5-5-5-5-5-7-7-7-7-5-5-5-5-9-9-9-9-5-5-5-5---------|
A -------------------------------------------------------------------------|
E -------------------------------------------------------------------------|

e -------------------------------------------------------------------------|
B -------------------------------------------------------------------------|
G -------------------------------------------------------------------------|
D -7-7-7-7-7-7-7-9-9-10-10-10-10-12-12-12-12-------------------------------|
A -------------------------------------------------------------------------|
E -------------------------------------------------------------------------|

e -------------------------------------------------------------------------|
B -------------------------------------------------------------------------|
G -----------------------------------------------------------------7-7-7-7-|
D -5-5-5-5-5-5-5-3-5-5-5-5-5-5-5-5-7-7-7-7-7-7-7-7-9-9-10-10-10-10---------|
A -------------------------------------------------------------------------|
E -------------------------------------------------------------------------|

e -------------------------------------------------------------------------|
B -------------------------------------------------------------------------|
G -------------------------7-7-7-7-9-9-9-9-11-11-11-11-12-12-12-12-12~-----|
D -10-10-10-10-10-10-10-10-------------------------------------------------|
A -------------------------------------------------------------------------|
E -------------------------------------------------------------------------|

The ending chorus has the same chords as the normal chorus.
            
Hard to play? Try these video lessons and learn fast. | Correct




comments powered by Disqus
↑ Back to top | Tablatures and chords are parodies/interpretations of the original songs. You may use it for private study, scholarship, research or language learning purposes only