>
 >
Deliverance

Deliverance Guitar Tabs

Showbread - Deliverance chords, tabs, tablatures, lyrics

Guitar lessons | Add/correct | Request | Top 50 tabs Artists:  A B C D E F G H I J K L M N O P Q R S T U V W X Y Z 0-9

Deliverance Guitar Tabs – Showbread

CD, Sheet music, Poster

Do you like Deliverance? Share with your friends now
Tabs
Showbread
"Deliverance" from "Who Can Know It?"

Drop D

0:00 Intro  strum pattern: \ \/ /\/  "Jesus, deliver us from our selfishness..."
3:08 Outro

   "Left" Guitar 
e|-------------------------------------------------------------------|
B|-------------------------------------------------------------------|
G|-5-5------------5-x------------------------------------------------|
D|-5-5--3-3--5-5--5-x------------------------------------------------|
A|-3-3--3-3--5-5--3-x------------------------------------------------|
D|------3-3--5-5-----------------------------------------------------|
 | C    F    G    C (for outro, play C chord, not X)
 | (each chord is one full strum pattern (4 beats)
 |
 |  "Right" Guitar 
e|-------------------------------------------------------------------|
B|-------------------------------------------------------------------|
G|-5-5------------5-5------------------------------------------------|
D|-5-5--3-3--5-5--5-5------------------------------------------------|
A|-3-3--3-3--5-5--3-3------------------------------------------------|
D|------3-3--5-5-----------------------------------------------------|

  
0:14  "Riff A"             0:28
"Worst of all..."            "The Jesus that we're shouting..."
   "Left" Guitar 
e|-----------------------|-------------------------------------------|
B|-----------------------|-------------------------------------------|
G|-----------------------|-------------------------------------------|
D|-2---------------------|-2-----------------------------------------|
A|----3--2---------------|----3--2-----------------------------------|
D|----------5------------|----------5--------------------------------|
 | E  C  B  G 8x each      E  C  B  G 8x each    
 |
 |
 |  "Right" Guitar 
e|-----------------------|-------------------------------------------|
B|-----------------------|-------------------------------------------|
G|-----------------------|-------------------------------------------|
D|-----------------------|-------------------------------------------|
A|-3--------3------------|-3------------------3-3-3p0-5-3------------|
D|----3--5---------------|----3--5-----------------------------------|
   C  F  G  C  8 beats ea  C  F  G 8 beats ea, then 

 
0:43  1:40  2:36  Chorus "Riff B"
"Heavy is the soul..."
   "Left" Guitar 
e|-------------------------------------------------------------------|
B|-------------------------------------------------------------------|
G|-------------------------------------------------------------------|
D|-------------------------------------------------------------------|
A|----3-----3-----3--0-----3-----------------------------------------|
D|-3-----3-----3--------5--------------------------------------------|
 | F  C  F  C  F  C  A  G  C
 | 8x 8x 8x 8x 8x 4x 4x 8x 8x (# of beats, not necessarily # of strums)
 |
 |
 |  "Right" Guitar 
e|-------------------------------------------------------------------|
B|-------------------------------------------------------------------|
G|-------------------------------------------------------------------|
D|-------------------------------------------------------------------|
A|-3-3/5-5/7-7/8-8/10-10-10-10---77-55-3--------10-10-12-12-10\7\5\3-|
D|-------------------------------------------------------------------|
   C   D   E   F   G             E  D  C        G  G  A  A  G  E D C 
   Play 3 times, third time finish -------------^

1:12 "Riff C"
"Jesus deliver us..."
   "Left" Guitar 
e|--------------|----------------------------------------------------|
B|--------------|----------------------------------------------------|
G|--------------|----------------------------------------------------|
D|--------------|----------------------------------------------------|
A|----5-3-22-33-|-32-3-55-77-----------------------------------------|
D|-5------------|----------------------------------------------------|
 | G  D C BB CC   CB C DD EE
 | Play 2 times
 |
 |  "Right" Guitar 
e|-----------------------|-------------------------------------------|
B|-----------------------|-------------------------------------------|
G|-----------------------|-------------------------------------------|
D|-----------------------|-------------------------------------------|
A|-3--------3------------|-3------------------3-3-3p0-5-3------------|
D|----3--5---------------|----3--5-----------------------------------|
   C  F  G  C  8 beats ea  C  F  G 8 beats ea, then 

1:40 Chorus Riff B  "Heavy is the soul..."

2:08 Solo, both guitars play right guitar "Riff A"
Solo:
e|-------------------------------------------------------------------|
B|-------------------------------------------------------------------|
G|--4/12---12-12-10-9-10-10----4/10----5/9---------------------------|
D|-------------------------------------------------------------------|
A|-------------------------------------------------------------------|
D|-------------------------------------------------------------------|
    B/G    G  G  F  E  F  F     B/F    C/E   
   Play 2 times

2:36 Chorus Riff B  "Heavy is the soul..."
3:05 Outro





Comments


Popular Showbread tabs & chords
Mouth Like A Magazine Bass Tabs
Hydra Chords
The Fear Of God Chords
Missing Wife 2 Tabs
The Dirt Alpha Tabs
The Great Emasculation Tabs
The Pig Anorexia 2 Tabs
The Pig Anorexia 3 Tabs
The Pig Nervosa 2 Tabs
The Sky Alpha Ukulele


Song lyrics



↑ Back to top | Tablatures and chords are parodies/interpretations of the original songs. You may use it for private study, scholarship, research or language learning purposes only
© 2014 AZChords.com Contact us | Privacy policy | DMCA | Add/correct tabs | Request tabs | Top 50 tabs