>
 >
Dead By Dawn

Dead By Dawn Guitar Tabs

Showbread - Dead By Dawn chords, tabs, tablatures, lyrics

Guitar lessons | Add/correct | Request | Top 50 tabs Artists:  A B C D E F G H I J K L M N O P Q R S T U V W X Y Z 0-9

Dead By Dawn Guitar Tabs – Showbread

CD, Sheet music, Poster

Do you like Dead By Dawn? Share with your friends now
Tabs
-------------------------------------------------------------------------------
                             SONG NAME - Band Name
-------------------------------------------------------------------------------

Tuning:DADGBe

 intro (guitar 1)
 |---------------------------------------------------------------------------|
 |---------------------------------------------------------------------------|
 |---------------------------------------------------------------------------|
 |-55-xx-xxx-xxxx55-xx-xxx-xxxx55-xx-xxx-xxxx55-x-xxx-xxxx-------------------|X4
 |-55-xx-xxx-xxxx55-xx-xxx-xxxx55-xx-xxx-xxxx55-x-xxx-xxxx-------------------|
 |-55-xx-xxx-xxxx55-xx-xxx-xxxx55-xx-xxx-xxxx55-x-xxx-xxxx-------------------|

intro guitar 2 (:9)
 |---------------------------------------------------------------------------|
 |---------------------------------------------------------------------------|
 |-----------------------------------------------------5*~-------------------|
 |-3h5p0-666666-3h5p0-666666-3h5p0-666666-3h5p0-666666-----------------------|
 |---------------------------------------------------------------------------|
 |---------------------------------------------------------------------------|

 |---------------------------------------------------------------------------|
 |---------------------------------------------------------------------------|
 |---------------------------------------------------------------------------|
 |-3h5p0-666666-3h5p0-666666-3h5p0-666666-3h5p0-666666-----------------------|X2
 |---------------------------------------------------------------------------|
 |---------------------------------------------------------------------------|

verse 1 both guitars (:35) 
 |---------------------------------------------------------------------------|
 |---------------------------------------------------------------------------|
 |---------------------------------------------------------------------------|
 |--5~----7~-----2~------5~----7~-----2~-------------------------------------|
 |--5~----7~-----2~------5~----7~-----2~-------------------------------------|
 |--5~----7~-----2~------5~----7~-----2~-------------------------------------|

Verse 1 cont. guitar 1 (:44)
 |---------------------------------------------------------------------------|
 |---------------------------------------------------------------------------|
 |---------------------------------------------------------------------------|
 |-55555-88888-3333333333-55555-88888-3333333333-55555--88888-33333333333----||
 |-55555-88888-3333333333-55555-88888-3333333333-55555--88888-33333333333----|
 |-55555-88888-3333333333-55555-88888-3333333333-55555--88888-33333333333----|

 |---------------------------------------------------------------------------|
 |---------------------------------------------------------------------------|
 |---------------------------------------------------------------------------|
 |-55555-88888--9--7--542----------------------------------------------------|
 |-55555-88888--9--7--542----------------------------------------------------|
 |-55555-88888--9--7--542----------------------------------------------------|

Verse 1 cont. guitar 2 (listen for where to come in)
 |---------------------------------------------------------------------------|
 |----------------------------------------------5b6--------------------------|
 |---------------------------------0-00-3p2p0-0-----3p2p0--------------------|
 |---6-5-3-5-3h5p3p0-----0-3-5-6-5-------------------------3-3333-0-0000-----|
 |---------------------------------------------------------------------------|
 |---------------------------------------------------------------------------|

verse 2 guitar 1 (1:03)
 |---------------------------------------------------------------------------|
 |---------------------------------------------------------------------------|
 |---------------------------------------------------------------------------|
 |---5-7--8-7--3-5-3-5--5-7-8-7--3-5-3-5--5-7-8-7--3-5-3-5--5-7-8-7--3-5-3-5-|
 |---5-7--8-7--3-5-3-5--5-7-8-7--3-5-3-5--5-7-8-7--3-5-3-5--5-7-8-7--3-5-3-5-|
 |---5-7--8-7--3-5-3-5--5-7-8-7--3-5-3-5--5-7-8-7--3-5-3-5--5-7-8-7--3-5-3-5-|

verse 2 guitar 2 (come in at 1:12)
 |---------------------------------------------------------------------------|
 |---------------------------------------------------------------------------|
 |-----------------------------7---------------------------------------------|
 |--855555558555555555855555558-875555558555555855555555---------------------|
 |---------------------------------------------------------------------------|
 |---------------------------------------------------------------------------|
p.m.....................................................

prechorus guitar 1 (1:22)
 |---------------------------------------------------------------------------|
 |---------------------------------------------------------------------------|
 |---------------------------------------------------------------------------|
 |-5-5555-13-13131313--10-12-10-12-5-5555-7-7777---13-13-13-13-13-13-13------|
 |-5-5555-13-13131313--10-12-10-12-5-5555-7-7777---13-13-13-13-13-13-13------|
 |-5-5555-13-13131313--10-12-10-12-5-5555-7-7777---13-13-13-13-13-13-13------|

chorus 1 guitar 1 (1:29)
 |---------------------------------------------------------------------------|
 |---------------------------------------------------------------------------|
 |----------------------------5*---------------------------------------------|
 |-3h5p0-666666-3h5p0-666666-------------------------------------------------|
 |---------------------------------------------------------------------------|
 |---------------------------------------------------------------------------|
 
 |---------------------------------------------------------------------------|
 |---------------------------------------------------------------------------|
 |---------------------------------------------------------------------------|
 |-3h5p0-666666-3h5p0-666666-3h5p0-666666-3h5p0-666666-----------------------|X2
 |---------------------------------------------------------------------------|
 |---------------------------------------------------------------------------|

chorus pt. 2 both guitars (1:52)
 |---------------------------------------------------------------------------|
 |---------------------------------------------------------------------------|
 |---------------------------------------------------------------------------|
 |-xx5-xx7-xx2-xx2-xx5-xx7-xx2-xx2-xx5-xx7-xx2-xx2-xx5-xx7-xx2-xx2-----------|
 |-xx5-xx7-xx2-xx2-xx5-xx7-xx2-xx2-xx5-xx7-xx2-xx2-xx5-xx7-xx2-xx2-----------|
 |-xx5-xx7-xx2-xx2-xx5-xx7-xx2-xx2-xx5-xx7-xx2-xx2-xx5-xx7-xx2-xx2-----------|

 |---------------------------------------------------------------------------|
 |---------------------------------------------------------------------------|
 |---------------------------------------------------------------------------|
 |-5555-7777-22222222-5555-7777-22222222-------------------------------------|
 |-5555-7777-22222222-5555-7777-22222222-------------------------------------|
 |-5555-7777-22222222-5555-7777-22222222-------------------------------------| 

postchorus guitar 1 
     (2:36)  
 |---------------| BREAK HERE|-----------------------------------------------|
 |---------------|   FROM    |-----------------------------------------------|
 |---------------|(2:38-2:40)|-----------------------------------------------|
 |-5-5555-8-8888-|           |-5-5555-8-8888-2-2222-2-2222-------------------|x2
 |-5-5555-8-8888-|           |-5-5555-8-8888-2-2222-2-2222-------------------|
 |-5-5555-8-8888-|           |-5-5555-8-8888-2-2222-2-2222-------------------|

postchorus guitar 2 (come in at 2:38)
 |---------------------------------------------------------------------------|
 |----------------------------------------------5b6--------------------------|
 |---------------------------------0-00-3p2p0-0-----3p2p0--------------------|
 |---6-5-3-5-3h5p3p0-----0-3-5-6-5-------------------------3-3333-0-0000-----|
 |---------------------------------------------------------------------------|
 |---------------------------------------------------------------------------|
postchorus pt 2 guitar 1 (2:49)
 |---------------|
 |---------------|
 |---------------|
 |-5-5555-8-8888-| "HAIL TO THE KING BABY!!!" 
 |-5-5555-8-8888-| 
 |-5-5555-8-8888-| 

bridge (2:53) guitar 1
 |---------------------------------------------------------------------------|
 |---------------------------------------------------------------------------|
 |---------------------------------------------------------------------------|
 |-5555-7777-22222222-5555-7777-22222222-------------------------------------|X2
 |-5555-7777-22222222-5555-7777-22222222-------------------------------------|
 |-5555-7777-22222222-5555-7777-22222222-------------------------------------| 

Bridge guitar 2 
 |---------------------------------------------------------------------------|
 |---------------------------------------------------------------------------|
 |-14-14-14-14-12-12-12-12-11-11-11-11-9-9-9-9-------------------------------|
 |-x--x--x--x--x--x--x--x--x--x--x--x--x-x-x-x-------------------------------|
 |-12-12-12-12-10-10-10-10-9--9--9--9--7-7-7-7-------------------------------|
 |---------------------------------------------------------------------------|
 
 |---------------------------------------------------------------------------|
 |---------------------------------------------------------------------------|
 |-14-14-14-14-16-16-16-16-11-11-11-11-9-9-9-9-------------------------------|
 |-x--x--x--x--x--x--x--x--x--x--x--x--x-x-x-x-------------------------------|
 |-12-12-12-12-14-14-14-14-9--9--9--9--7-7-7-7-------------------------------|
 |---------------------------------------------------------------------------|
 
 |---------------------------------------------------------------------------|
 |---------------------------------------------------------------------------|
 |-14-14-14-14-12-12-12-12-11-11-11-11-9-9-9-9-------------------------------|
 |-x--x--x--x--x--x--x--x--x--x--x--x--x-x-x-x-------------------------------|
 |-12-12-12-12-10-10-10-10-9--9--9--9--7-7-7-7-------------------------------|
 |---------------------------------------------------------------------------|
 
 |---------------------------------------------------------------------------|
 |---------------------------------------------------------------------------|
 |-14-14-14-14-16-16-16-16-21-21-21 21-21-21-21-21-21------------------------|
 |-x--x--x--x--x--x--x--x--x--x--x--x--x--x--x--x--x-------------------------|
 |-12-12-12-12-14-14-14-14-19-19-19-19-19-19-19-19-19------------------------|
 |---------------------------------------------------------------------------|
 
last chorus guitar 1 (3:11)
 |---------------------------------------------------------------------------|
 |---------------------------------------------------------------------------|
 |---------------------------------------------------------------------------|
 |-xx5-xx7-xx2-xx2-xx5-xx7-xx2-xx2-xx5-xx7-xx2-xx2-xx5-xx7-xx2-xx2-----------|
 |-xx5-xx7-xx2-xx2-xx5-xx7-xx2-xx2-xx5-xx7-xx2-xx2-xx5-xx7-xx2-xx2-----------|
 |-xx5-xx7-xx2-xx2-xx5-xx7-xx2-xx2-xx5-xx7-xx2-xx2-xx5-xx7-xx2-xx2-----------|

last chorus guitar 2
 |-9b10--11b12--6b7--6b7--9b10-11b12--6b7--6b7-------------------------------|
 |---------------------------------------------------------------------------|
 |---------------------------------------------------------------------------|X2
 |---------------------------------------------------------------------------|
 |---------------------------------------------------------------------------|
 |---------------------------------------------------------------------------|

break down guitar 1 (3:29)
 |---------------------------------------------------------------------------|
 |---------------------------------------------------------------------------|
 |---------------------------------------------------------------------------|
 |--66-xx-88-xx-44-xx----xx-66-xx-8------------------------------------------|
 |--66-xx-88-xx-44-xx----xx-66-xx-8------------------------------------------|
 |--66-xx-88-xx-44-xx----xx-66-xx-8------------------------------------------|
 

| /  slide up
| \  slide down
| h  hammer-on
| p  pull-off
| ~  let ring
| +  harmonic
| x  Mute note
===============================================================================





Comments


Popular Showbread tabs & chords
Lost Connection With The Head Bass Tabs
The Pig Anorexia Bass Tabs
Age Of Insects Chords
Missing Wife 1 Tabs
Mouth Like A Magazine Tabs
Mouth Like A Magazine 1 Tabs
Mouth Like A Magazine 2 Tabs
Mouth Like A Magazine 3 Tabs
Oh! Emetophobia! 1 Tabs
Sing Me To Sleep Ukulele


Song lyrics



↑ Back to top | Tablatures and chords are parodies/interpretations of the original songs. You may use it for private study, scholarship, research or language learning purposes only
© 2014 AZChords.com Contact us | Privacy policy | DMCA | Add/correct tabs | Request tabs | Top 50 tabs