» » »

Showbread, A Llama Eats A Giraffe And Visa Versa Tabs (ver.1)

Artists:  A B C D E F G H I J K L M N O P Q R S T U V W X Y Z # 

A Llama Eats A Giraffe And Visa Versa Tabs (ver.1)

Showbread Tabs
Rating:
0/5 (0 votes)
A Llama Eats A Giraffe And Visa Versa lessons Tabs too difficult? Try these video lessons and learn fast
                ----------------------------------------------------------------------------
                             SONG NAME - Band Name
----------------------------------------------------------------------------

Tuning:Standard

Intro:
e|----------------|
B|----------------|
G|-55555/888/555--|
D|-55555/888/555--|
A|-77777/666/333--|
E|----------------|

Verse 1:
e|--------------------------------|
B|--------------------------------|
G|-5b-55b-55b-55b-1010-99-77-555--| X2
D|-5b-55b-55b-55b-1010-99-77-555--|
A|-7b-77b-77b-77b--88--77-55-333--|
E|--------------------------------|

Chorus 1:
e|-----------------------------------------------------------|
B|-----------------------------------------------------------|
G|-------5555-7777-888-555--------5555-7777-1010101010101010-| X2
D|--7777-5555-7777-888-555---7777-5555-7777-1010101010101010-|
A|--7777-3333-5555-666-333---7777-3333-5555-8-8-8-8-8-8-8-8--|
E|--5555---------------------5555----------------------------|

Chorus 2:
e|-------------|
B|-------------|
G|-7-8-9-10979-|
D|-7-8-9-10979-| X4
A|-5-6-7-8-757-|
E|-------------|

Verse 2: No Guitar until 16th measure
e|--------------------------------------------------------------------------|
B|--------------------------------------------------------------------------|
G|-7b-77b-77b-77b--1010-99-77-555-------------------------------------------|
D|-7b-77b-77b-77b--1010-99-77-555-------------------------------------------|
A|-5b-55b-55b-55b--8-8--77-55-333-------------------------------------------|
E|--------------------------------------------------------------------------|

Chorus 1:
e|-----------------------------------------------------------|
B|-----------------------------------------------------------|
G|-------5555-7777-888-555--------5555-7777-1010101010101010-| X2
D|--7777-5555-7777-888-555---7777-5555-7777-1010101010101010-|
A|--7777-3333-5555-666-333---7777-3333-5555-8-8-8-8-8-8-8-8--|
E|--5555---------------------5555----------------------------|

Chorus 2:
e|-------------|
B|-------------|
G|-7-8-9-10979-|
D|-7-8-9-10979-| X4
A|-5-6-7-8-757-|
E|-------------|

Bridge: No Guitar

Breakdown:

e|-----------------------------------------------------------|
B|-----------------------------------------------------------|
G|-------5555-7777-888-555--------5555-7777-1010101010101010-| X2
D|--7777-5555-7777-888-555---7777-5555-7777-1010101010101010-|
A|--7777-3333-5555-666-333---7777-3333-5555-8-8-8-8-8-8-8-8--|
E|--5555---------------------5555----------------------------|

Before Chorus 2:

e|-----------|
B|-----------|
G|--10-9-7-9-|
D|--10-9-7-9-|
A|--8--7-5-7-|
E|-----------|


Chorus 2:

e|-------------|
B|-------------|
G|-7-8-9-10979-|
D|-7-8-9-10979-| X4
A|-5-6-7-8-757-|
E|-------------|

Outro:

e|--------------------------------------------------------------------------|
B|--------------------------------------------------------------------------|
G|-10979-10979-10979-10979--7b----------------------------------------------|
D|-10979-10979-10979-10979--7b-77-7-----------------------------------------|
A|-8-757-8-757-8-757-8-757--5b-77-7-----------------------------------------|
E|-----------------------------55-5-----------------------------------------|

Its my first tab but Im pretty sure its 100% right
God Bless


| /  slide up
| \  slide down
| h  hammer-on
| p  pull-off
| ~  vibrato
| +  harmonic
| x  Mute note
============================================================================
            
Submit corrections

comments powered by Disqus
↑ Back to top | Showbread Tabs for A Llama Eats A Giraffe And Visa Versa. Lyrics for acoustic guitar and electric guitar. Tablatures and chords are parodies/interpretations of the original songs. You may use it for private study, scholarship, research or language learning purposes only