» » »

Showbread, A Llama Eats A Giraffe (And Vice Versa) Tabs (ver.1)

Artists:  A B C D E F G H I J K L M N O P Q R S T U V W X Y Z # 

A Llama Eats A Giraffe (And Vice Versa) Tabs (ver.1)

Showbread Tabs
Rating:
0/5 (0 votes)
A Llama Eats A Giraffe (And Vice Versa) lessons Tabs too difficult? Try these video lessons and learn fast
                Standard Tuning

Intro
e---------------------------------------------------------------------------|
B---------------------------------------------------------------------------|
G---77777-888-555-----------------------------------------------------------|
D---77777-888-555-----------------------------------------------------------|
A---55555-666-333-----------------------------------------------------------|
E---------------------------------------------------------------------------|

Verse
e---------------------------------------------------------------------------|
B---------------------------------------------------------------------------|
G---b7-b7\---------------------77-1010-99-77-7/10-b7\-----------------------|
D---b7-b7\--a-few-times-then---77-1010-99-77-7/10-b7\-----------------------|
A---b5-b5\---------------------55--8-8-77-55-5/-8-b5\-----------------------|
E---------------------------------------------------------------------------|

Chorus I (I know the road)
e---------------------------------------------------------------------------|
B---------------------------------------------------------------------------|
G-------5555-7777-888-555--------5555-7777-10101010101010-------------------|
D--7777-5555-7777-888-555---7777-5555-7777-10101010101010-------------------|
A--7777-3333-5555-666-333---7777-3333-5555--8-8-8-8-8-8-8-------------------|
E--5555---------------------5555--------------------------------------------|

Chorus II (Nothing's forever)
e---------------------------------------------------------------------------|
B---------------------------------------------------------------------------|
G---7------8------9------10-9X7/9-------------------------------------------|
D---7-7XXX-8-7XXX-9-7XXX-10-9X7/9-------------------------------------------|
A---5-7XXX-6-7XXX-7-7XXX--8-7X5/7-------------------------------------------|
E-----5XXX---5XXX---5XXX----------------------------------------------------|

Outro
e---------------------------------------------------------------------------|
B---------------------------------------------------------------------------|
G--10-9-7-9-10-9-7-9-10-9-7-9-10-9-7-9---7----------------------------------|
D--10-9-7-9-10-9-7-9-10-9-7-9-10-9-7-9---7-555------------------------------|
A---8-7-5-7--8-7-5-7--8-7-5-7--8-7-5-7---5-555------------------------------|
E------------------------------------------333------------------------------|

Intro
Verse
Chorus I
Chorus II
Verse
Chorus I
Chorus II
Little break
Bridge (is the same as Chorus I)
Chorus II
Outro
            
Submit corrections

comments powered by Disqus
↑ Back to top | Showbread Tabs for A Llama Eats A Giraffe (And Vice Versa). Lyrics for acoustic guitar and electric guitar. Tablatures and chords are parodies/interpretations of the original songs. You may use it for private study, scholarship, research or language learning purposes only