» » »

Shop 11 Phoenix, Hollow Hearth Tabs (ver.1)

Artists:  A B C D E F G H I J K L M N O P Q R S T U V W X Y Z # 

Hollow Hearth Tabs (ver.1)

Shop 11 Phoenix Tabs
Rating:
0/5 (0 votes)
Hollow Hearth lessons Tabs too difficult? Try these video lessons and learn fast
                HOLLOW HEART
Shop 11 Phoenix
INTRO
e|----5-5---5------|
B|---6---6---6-----|
G|--7-----7---7----|X2
D|-7-------------7-|
A|5-------------5--|
E|-----------------|

G|-------------------------------|
D|---7---7----10---10------------|
A|55--5-5-5-88--8-8--8--10---10--|
E|--------------------88--8-8--8-|
CONT.
G|----------------|
D|----------------|X2
A|--8---8---7-5-4-|
E|66-6-6-6-5------|

/SLIDE UP \SLIDE DOWN
G|10/14\12-1010-99-|
D|--/--\-----------|
A|-8/12\10--8-8-77-|X2
E|-----------------|

VERSE
G|77-1010----------|
D|77-1010-1010-8-7-|X3
A|55--8-8-1010-8-7-|
E|---------8-8-6-5-|

CHORUS
G|77-9-1010-12----------|
D|77-9-1010-12-1010-8-7-|
A|55-7--8-8-10-1010-8-7-|
E|--------------8-8-6-5-|

VERSE 4X,CHORUS 2X, LET A Dm RING OUT

BRIDGE
G|---------------------|
D|---------------------|
A|5555-8888------------|
E|----------8888-77-55-|

VERSE, CHORUS, VERSE, CHORUS 
END ON D5
            
Submit corrections

comments powered by Disqus
↑ Back to top | Shop 11 Phoenix Tabs for Hollow Hearth. Lyrics for acoustic guitar and electric guitar. Tablatures and chords are parodies/interpretations of the original songs. You may use it for private study, scholarship, research or language learning purposes only