>
 >
Sleepeater

Sleepeater Guitar Tabs

Shihad - Sleepeater chords, tabs, tablatures, lyrics

Guitar lessons | Add/correct | Request | Top 50 tabs Artists:  A B C D E F G H I J K L M N O P Q R S T U V W X Y Z 0-9

Sleepeater Guitar Tabs – Shihad

CD, Sheet music, Poster

Do you like Sleepeater? Share with your friends now
TabsTabs v2
Ok well listen to song for timing
not 100% on the bridge but the rest is really good

Intro
e|-------------------------------------------|   play x2
B|-------------------------------------------|   for intro
G|-------------------------------------------|
D|-3-3-3-4---3-3-3-4---3-3-3-4---2-2-2-4-----|
A|-3-3-3-4---1-1-1-4---3-3-3-4---2-2-2-4-----|   
E|-1-1-1-2-0-1-1-1-2-0-1-1-1-2-0-0-0-0-2-0---|   

Verse
e|-------------------------------------------|   
B|-------------------------------------------|   
G|-------------------------------------------|   play x4
D|-3-3-3-4---3-3-3-4---3-3-3-4---2-2-2-4-----|   for verse one
A|-3-3-3-4---1-1-1-4---3-3-3-4---2-2-2-4-----|   
E|-1-1-1-2-0-1-1-1-2-0-1-1-1-2-0-0-0-0-2-0---|

Chorus

   Bb  Db  Ab  Eb  (each chord is strummed for a whole bar each)
e|----------------------------|
B|----------------------------|   play x2
G|-----6-------8--------------|
D|-8---6---6---8--------------|
A|-8---4---6---6--------------|
E|-6-------4------------------|

Verse
e|-------------------------------------------|   play x5
B|-------------------------------------------|   for verse two
G|-------------------------------------------|
D|-3-3-3-4---3-3-3-4---3-3-3-4---2-2-2-4-----|
A|-3-3-3-4---1-1-1-4---3-3-3-4---2-2-2-4-----|   
E|-1-1-1-2-0-1-1-1-2-0-1-1-1-2-0-0-0-0-2-0---|

Chorus

   Bb  Db  Ab  Eb  (each chord is strummed for a whole bar each)
e|----------------------------|
B|----------------------------|   play x4
G|-----6-------8--------------|
D|-8---6---6---8--------------|
A|-8---4---6---6--------------|
E|-6-------4------------------|

Bridge
e|-------------------------------------------|   Half time
B|-------------------------------------------|   of verse
G|-------------------------------------------|
D|-3-3-3-4---3-3-3-4---3-3-3-4---2-2-2-4-----|
A|-3-3-3-4---1-1-1-4---3-3-3-4---2-2-2-4-----|   
E|-1-1-1-2-0-1-1-1-2-0-1-1-1-2-0-0-0-0-2-0---| 

Chorus

   Bb  Db  Ab  Eb  (each chord is strummed once for a whole bar each)
e|----------------------------|
B|----------------------------|   play x2
G|-----6-------8--------------|
D|-8---6---6---8--------------|
A|-8---4---6---6--------------|
E|-6-------4------------------|

Chorus

   Bb  Db  Ab  Eb  (each chord is strummed for a whole bar each)
e|----------------------------|
B|----------------------------|   play x4
G|-----6-------8--------------|
D|-8---6---6---8--------------|
A|-8---4---6---6--------------|
E|-6-------4------------------|

Outro
e|-------------------------------------------|   play x4
B|-------------------------------------------|   
G|-------------------------------------------|
D|-3-3-3-4---3-3-3-4---3-3-3-4---2-2-2-4-----|
A|-3-3-3-4---1-1-1-4---3-3-3-4---2-2-2-4-----|   
E|-1-1-1-2-0-1-1-1-2-0-1-1-1-2-0-0-0-0-2-0---| 





Comments


Popular Shihad tabs & chords
Home Again 1 Bass Tabs
Pacifier Bass Tabs
Wait And See Bass Tabs
Run Chords
Walls Chords
General Electric Tabs
Hate Boys Tabs
Pacifier 3 Tabs
Home Again Ukulele
Walls Ukulele


Song lyrics



↑ Back to top | Tablatures and chords are parodies/interpretations of the original songs. You may use it for private study, scholarship, research or language learning purposes only
© 2014 AZChords.com Contact us | Privacy policy | DMCA | Add/correct tabs | Request tabs | Top 50 tabs