» » »

Shihad, Shot In The Head Bass tabs (ver.1)

Artists:  A B C D E F G H I J K L M N O P Q R S T U V W X Y Z # 

Shot In The Head Bass tabs (ver.1)

Shihad Tabs
 Rating:
4/5 (4 votes)
Shot In The Head lessons Tabs too difficult? Try these video lessons and learn fast
                Drop D ( D A D G )


Used Tab Symbols
_____________________
\  = Slide Down
:  = Let Ring

Intro x 8:

G|-------------------------------------------------------------|
D|-------------------------------------------------------------|
A|-5-----------------------------------------------------------|
D|----0---0--0--0-0-0------------------------------------------|



Verse x 16:

G|-------------------------------------------------------------|
D|-------------------------------------------------------------|
A|-5-----------------------------------------------------------|
D|----0---0--0--0-0-0------------------------------------------|



Chorus:

G|-------------------------------------------------------------|
D|-------------------------------------------------------------|
A|-------------------------------------------------------------|
D|-8-8-8--0-0-0-0--10-10-10-10-10-10-10-10---------------------|

G|-------------------------------------------------------------|
D|-------------------------------------------------------------|
A|-------------------------------------------------------------|
D|-8-8-8--0-0-0-0--10-10-10-10-10-10-10-10---------------------|

G|-------------------------------------------------------------|
D|-------------------------------------------------------------|
A|-------------------------------------------------------------|
D|-8-8-8--0-0-0-0--10-10-10-10-10-10-10-10---------------------|

G|-------------------------------------------------------------|
D|-------------------------------------------------------------|
A|-------------------------------------------------------------|
D|-8-8-8--0-0-0-0--10-10-10-10-10-10-10-10---------------------|



2nd Verse x 16:

G|-------------------------------------------------------------|
D|-------------------------------------------------------------|
A|-5-----------------------------------------------------------|
D|----0---0--0--0-0-0------------------------------------------|


Chorus:

G|-------------------------------------------------------------|
D|-------------------------------------------------------------|
A|-------------------------------------------------------------|
D|-8-8-8--0-0-0-0--10-10-10-10-10-10-10-10---------------------|

G|-------------------------------------------------------------|
D|-------------------------------------------------------------|
A|-------------------------------------------------------------|
D|-8-8-8--0-0-0-0--10-10-10-10-10-10-10-10---------------------|

G|-------------------------------------------------------------|
D|-------------------------------------------------------------|
A|-------------------------------------------------------------|
D|-8-8-8--0-0-0-0--10-10-10-10-10-10-10-10---------------------|

G|-------------------------------------------------------------|
D|-------------------------------------------------------------|
A|-------------------------------------------------------------|
D|-8-8-8--0-0-0-0--10-10-10-10-10-10-10-10---------------------|



Interlude:

G|-----------------------------------------------------------------|
D|-----------------------------------------------------------------|
A|-----------------------------------------------------------------|
D|-0:------------------------------0:------------------------------|


Bridge x 8:

G|-------------------------------------------------------------|
D|-------------------------------------------------------------|
A|----5/3—-3/5----3/5--0---------------------------------------|
D|-0-----------0----------6-6—--3-3----------------------------|



Verse riff:

G|-------------------------------------------------------------|
D|-------------------------------------------------------------|
A|------5------------------------5-----------------------------|
D|-12/-----0---0--0--0-0-0----------0---0--0--0-0-0------------|

G|-------------------------------------------------------------|
D|-------------------------------------------------------------|
A|-5--------------------------5--------------------------------|
D|----0---0--0--0-0-0------------0---0--0--0-0-0---------------|


Chorus:

G|-------------------------------------------------------------|
D|-------------------------------------------------------------|
A|-------------------------------------------------------------|
D|-8-8-8--0-0-0-0--10-10-10-10-10-10-10-10---------------------|

G|-------------------------------------------------------------|
D|-------------------------------------------------------------|
A|-------------------------------------------------------------|
D|-8-8-8--0-0-0-0--10-10-10-10-10-10-10-10---------------------|

G|-------------------------------------------------------------|
D|-------------------------------------------------------------|
A|-------------------------------------------------------------|
D|-8-8-8--0-0-0-0--10-10-10-10-10-10-10-10---------------------|

G|-------------------------------------------------------------|
D|-------------------------------------------------------------|
A|-------------------------------------------------------------|
D|-8-8-8--0-0-0-0--10-10-10-10-10-10-10-10---------------------|

G|-------------------------------------------------------------|
D|-------------------------------------------------------------|
A|-------------------------------------------------------------|
D|-8-8-8--0-0-0-0--10-10-10-10-10-10-10-10---------------------|

G|-------------------------------------------------------------|
D|-------------------------------------------------------------|
A|-------------------------------------------------------------|
D|-8-8-8--0-0-0-0--10-10-10-10-10-10-10-10---------------------|

G|-------------------------------------------------------------|
D|-------------------------------------------------------------|
A|-------------------------------------------------------------|
D|-8-8-8--0-0-0-0--10-10-10-10-10-10-10-10---------------------|

G|-------------------------------------------------------------|
D|-------------------------------------------------------------|
A|-------------------------------------------------------------|
D|-8-8-8--0-0-0-0--10-10-10-10-10-10-10-10---------------------|


Outro:
G|-------------------------------------------------------------|
D|-------------------------------------------------------------|
A|-5—-5/6-5--5/6-5—-5/6-5--3----5—-5/6-5--5/6-5—-5/6-5--3------|
D|-------------------------------------------------------------|

G|-------------------------------------------------------------|
D|-------------------------------------------------------------|
A|-5\0---------------------------------------------------------|
D|-------------------------------------------------------------|
            
Submit corrections

comments powered by Disqus
↑ Back to top | Shihad Bass for Shot In The Head. Lyrics for acoustic guitar and electric guitar. Tablatures and chords are parodies/interpretations of the original songs. You may use it for private study, scholarship, research or language learning purposes only