» » »

Run Accoustic Tabs (ver.1)

Artists:  A B C D E F G H I J K L M N O P Q R S T U V W X Y Z # 

Run Accoustic Tabs (ver.1)

Shihad
Rating:
4/5 (4 votes)

Hard to play? Try these video lessons and learn fast.
                intro

e|---------------------------------------------------------------------------|
B|---------3-----------3-----------3-------3---------------------------------|
G|------0-----0-----0----0------0----0----------------0----------------------|
D|--3------------2----------------------0----------0-------------------------|
A|--------------------------------------------0h2----------------------------|
E|--------------------------3------------------------------------------------|

e|---------------------------------------------------------------------------|
B|---------3-----------3-----------3-------3---------------------------------|
G|------0-----0-----0----0------0----0----------------0----------------------|
D|--3------------2----------------------0----------0-------------------------|
A|--------------------------------------------0h2----------------------------|
E|--------------------------3------------------------------------------------|


e|---------------------------------------------------------------------------|
B|--------3-----------3---------3--------3------------3--------------3-------|
G|-----0-----0-----0----0-----0-----0-------------0-----0------------0-------|
D|--3-----------2----------------------------------------------------0-------|
A|------------------------3-----------3-------1----------------------X-------|
E|--------------------------------------------------------1--0h3-----1-------|

chorus

e|---------------------------------------------------------------------------|
B|-------------------------------3-------------------3-----------------------|
G|---0---0--0--0------------0-------0----------------0-----------------------|
D|---0---0--0--0---X3--------------------------------0-----------------------|
A|---X---X--X--X---------1---------------------------X-----------------------|
E|---3---5--7--8------------------------1---0H3------1-----------------------|
            
Hard to play? Try these video lessons and learn fast. | Correct




comments powered by Disqus
↑ Back to top | Tablatures and chords are parodies/interpretations of the original songs. You may use it for private study, scholarship, research or language learning purposes only