» » »

Shihad, Run Tabs (ver.1)

Artists:  A B C D E F G H I J K L M N O P Q R S T U V W X Y Z # 

Run Tabs (ver.1)

Shihad Tabs
Rating:
4/5 (2 votes)
Run lessons Tabs too difficult? Try these video lessons and learn fast
                Jons part

Intro

-333333-333333-3-3-3333---------|
-333333-333333-3-3-3333---------|
-000000-000000-0-0-0000---------|  x2
-333333-222222-0-0-0000---------|
--------------------------0-3---|
---------------3-3-3333-3-------|

-333333-333333-3-3-3333-|
-333333-333333-3-3-3333-|
-000000-000000-0-0-0000-|
-333333-222222-0-0-0000-|
---------------3-3-3333-|
------------------------|

-----33---3-3-|
-----33---3-3-|
-----00---0-0-|
---0--------0-|
-1------------|
--------1---3-|


MAIN RIFF

-----33---3-3333-|
-----33---3-3333-|
-----00---0-0000-|
---0--------0000-|
-1---------------|
--------1---3333-|


CHORUS

3-3-3333
3-3-3333
0-0-0000
0-0-0000
----3333-|
3-3------|

SONG FORMATION

INTRO
MAIN RIFF x4 (on a rising tide...)
CHORUS x6 + 1x MAIN RIFF (so you run...)
MAIN RIFF x4 (you still love to dance...)
CHORUS x8 (so you run...)
INTRO (don't want to have to make a change...)
MAIN RIFF x3 (ooo, ohhhhh...)
CHORUS x12 (so you run...)
MAIN RIFF x1 as outro


Phils Part

Intro
|-555555555333333--3--3-3-3-3-|
|-----------------------------|
|-----------------------------|
|-----------------------------| x4
|-----------------------------|
|-----------------------------|

Verse
|--------------------------------|
|---6-8-6---6-----6-8-6---6--8-6-|
|-0-------7---7-0-------0---0----|
|--------------------------------| x4
|--------------------------------|
|--------------------------------|

Chorus

Part1
|-3333333333333333-|
|-0000000011111111-|
|-0000000022222222-|
|------------------|
|------------------|
|------------------|

Part 2
|---------5--------5-----|
|--6-8--6---6-8--6---6-8-|
|------------------------|
|------------------------| x2
|------------------------|
|------------------------|

Fill
|---------5--------5--------5--------5-------|
|--6-8--6---6-8--6---6-8--6---6-8--6---6-8-6-|
|--------------------------------------------|
|--------------------------------------------|
|--------------------------------------------|
|--------------------------------------------|

Outro
|---------5--------5---|
|--6-8--6---6-8--6---6-|
|----------------------|
|----------------------|
|----------------------|
|----------------------|
Song Structure:
Intro
Verse
Chorus Part 1
Chorus Part 2
Fill
Verse
Chrous Part 1
Chorus Part 2 (x2)
Intro
Verse (Ooo Ohhh's)
Pause (Jon only)
Chrous Part 1
Chorus Part 2
Outro
            

comments powered by Disqus
↑ Back to top | Shihad Tabs for Run. Lyrics for acoustic guitar and electric guitar. Tablatures and chords are parodies/interpretations of the original songs. You may use it for private study, scholarship, research or language learning purposes only