>
 >
Home Again 1

Home Again 1 Guitar Tabs

Shihad - Home Again 1 chords, tabs, tablatures, lyrics

Guitar lessons | Add/correct | Request | Top 50 tabs Artists:  A B C D E F G H I J K L M N O P Q R S T U V W X Y Z 0-9

Home Again 1 Guitar Tabs – Shihad

CD, Sheet music, Poster

Do you like Home Again 1? Share with your friends now
Bass TabsBass Tabs v2ChordsTabsTabs v2Ukulele
-------------------------------------------------------------------------------
                             HOME AGAIN - Shihad
-------------------------------------------------------------------------------


Tuning: Standard

Intro - Guitar 1, play all through verse

e|---------------------------------------------------------------------------|
B|---------------------------------------------------------------------------|
G|-9-9-x-9-x-9-9-x-9-x-8-8-x-8-x-8-8-x-8-x-----------------------------------|
D|-9-9-x-9-x-9-9-x-9-x-9-9-x-9-x-9-9-x-9-x-----------------------------------|
A|-7-7-x-7-x-7-7-x-7-x-7-7-x-7-x-7-7-x-7-x-----------------------------------|
E|---------------------------------------------------------------------------|

Guitar 2, after playing intro twice

e|---------------------------------------------------------------------------|
B|---------------------------------------------------------------------------|
G|-6~------------------------------------------------------------------------|
D|-6~------------------------------------------------------------------------|
A|-4~------------------------------------------------------------------------|
E|---------------------------------------------------------------------------|

Guitar 2

Verse 1 (words not lined up with music)

        Put your clock back for the winter                               
e|---------------------------------------------------------------------------|
B|---------------------------------------------------------------------------|
G|-66-------------9----------------------------------------------------------|
D|-66-11--999--4--9----------------------------------------------------------|
A|-44-11--999--4--7----------------------------------------------------------|
E|----9---777--2-------------------------------------------------------------|

         She asks when I'll be home again

e|---------------------------------------------------------------------------|
B|---------------------------------------------------------------------------|
G|-99--------------9---------------------------------------------------------|
D|-99--11--999--4--9---------------------------------------------------------|
A|-77--11--999--4--7---------------------------------------------------------|
E|-----9---777--2------------------------------------------------------------|


           If I could see those eyes, I know they'd cut me down to size   
e|---------------------------------------------------------------------------|
B|---------------------------------------------------------------------------|
G|-99x---------------9-------------------------------------------------------|
D|-99x9--11--999--4--9-------------------------------------------------------|
A|-77x9--11--999--4--7-------------------------------------------------------|
E|----7--9---777--2----------------------------------------------------------|

You're not here when I need ya

e|---------------------------------------------------------------------------|
B|---------------------------------------------------------------------------|
G|-999999x------------9--99x-------------------------------------------------|
D|-999999x11--999--4--9--99x9------------------------------------------------|
A|-777777x11--999--4--7--77x9------------------------------------------------|
E|--------9---777--2--------7------------------------------------------------|

Chorus (no intro played)

e|---------------------------------------------------------------------------|
B|---------------------------------------------------------------------------|
G|-6-6-6/9---6-6-6/9---6-6-6\4---6-6-6\4-------------------------------------|
D|-6-6-6/9---6-6-6/9---6-6-6\4---6-6-6\4---repeat 4 times--------------------|
A|-4-4-4/7---4-4-4/7---4-4-4\2---4-4-4\2-------------------------------------|
E|---------------------------------------------------------------------------|

Verse 2 (slightly different to verse one)

      It's been a day of tiny triumphs

e|---------------------------------------------------------------------------|
B|---------------------------------------------------------------------------|
G|--------------9------------------------------------------------------------|
D|--11--999--4--9------------------------------------------------------------|
A|--11--999--4--7------------------------------------------------------------|
E|--9---777--2---------------------------------------------------------------|

        It's been a week spent in dispair

e|---------------------------------------------------------------------------|
B|---------------------------------------------------------------------------|
G|----------------9-----9----------------------------------------------------|
D|-99-11--999--4--9--99x9----------------------------------------------------|
A|-99-11--999--4--7--99x7----------------------------------------------------|
E|-77-9---777--2-----77x-----------------------------------------------------|

      You can't send it down a phone line

e|---------------------------------------------------------------------------|
B|---------------------------------------------------------------------------|
G|--------------9------------------------------------------------------------|
D|--11--999--4--9------------------------------------------------------------|
A|--11--999--4--7------------------------------------------------------------|
E|--9---777--2---------------------------------------------------------------|

I'll do my best but I'm not there

e|---------------------------------------------------------------------------|
B|---------------------------------------------------------------------------|
G|-999999x------------9--99x-------------------------------------------------|
D|-999999x11--999--4--9--99x9------------------------------------------------|
A|-777777x11--999--4--7--77x9------------------------------------------------|
E|--------9---777--2--------7------------------------------------------------|

Chorus

Solo (played over intro)

e|---------------------------------------------------------------------------|
B|---------------------------------------------------------------------------|
G|---------------------------------------------------------------------------|
D|--2-2-----------------2-2-----------------2-2-------2-2h4-2-------2--------|
A|-1-1-2-2-2-2-2-2-2-2-1-1-2-2-2-2-2-2-2-2-1-1-2-2-2-4-4-----2-2-2-4-4-2-----|
E|---------------------------------------------------------------------------|

e|---------------------------------------------------------------------------|
B|---------------------------------------------------------------------------|
G|---------------------------------------------------------------------------|
D|------------------2-2h4-2---------2----------------------------------------|
A|-2h4-4-4-2-2-2-2-4-4-----2-2-2-2-4-4-2-2h4-4-4-4-2-2-2-2-2-2-2-------------|
E|---------------------------------------------------------------------------|


I'll be home again.....coming home again (played over intro)

e|---------------------------------------------------------------------------|
B|---------------------------------------------------------------------------|
G|---------------9----------------9--------------------------------9---------|
D|---11--999--4--9--99-11-999--4--9--------------------11--999--4--9---------|
A|---11--999--4--7--99-11-999--4--7--------------------11--999--4--7---------|
E|---9---777--2-----77-9--777--2-----0-0-3-0-0-3-0-0-3-9---777--2------------|

Outro (plated over intro)

e|---------------------------------------------------------------------------|
B|-9--9--9--8--8--8----------------------------------------------------------|
G|--9--9--9--9--9------------------------------------------------------------|
D|---7--7--7--7--7-----------------------------------------------------------|
A|---------------------------------------------------------------------------|
E|---------------------------------------------------------------------------|


| /  slide up
| \  slide down
| h  hammer-on
| p  pull-off
| ~  vibrato
| +  harmonic
| x  Mute note
===============================================================================





Comments


Popular Shihad tabs & chords
Home Again 1 Bass Tabs
Pacifier 1 Bass Tabs
Wait And See 1 Bass Tabs
General Electric Intro Chords
All The Young Fascists Tabs
Shot In The Head Tabs
Sleepeater Tabs
Sleepeater 1 Tabs
You Again Tabs
Walls Ukulele


Song lyrics



↑ Back to top | Tablatures and chords are parodies/interpretations of the original songs. You may use it for private study, scholarship, research or language learning purposes only
© 2014 AZChords.com Contact us | Privacy policy | DMCA | Add/correct tabs | Request tabs | Top 50 tabs