» » »

Shihad, General Electrical Tabs (ver.1)

Artists:  A B C D E F G H I J K L M N O P Q R S T U V W X Y Z # 

General Electrical Tabs (ver.1)

Shihad Tabs
 Rating:
4/5 (4 votes)
General Electrical lessons Tabs too difficult? Try these video lessons and learn fast
1
                                      Shihad – General Electrical

Tune down a whole step

Main Riff
D|---------------------------------------------------------------------------|
A|---------------------------------------------------------------------------|
F|----0--0----------0--0-----------------------------------------------------|
C|-2--0--0--2----2--0--0--2--------------------------------------------------|
G|-2--x--x--2----2--x--x--2--------------------------------------------------|
D|-0--3--3--0----0--3--3--0--------------------------------------------------|

Verse
D|---------------------------------------------------------------------------|
A|---------------------------------------------------------------------------|
F|-13-13-13-13-13-13-13-13--12-12-12-12-12-12-12-12--------------------------|
C|---------------------------------------------------------------------------|
G|-11-11-11-11-11-11-11-11--10-10-10-10-10-10-10-10--------------------------|
D|---------------------------------------------------------------------------|

Verse (guitar 2) (use effects)
D|---------------------------------------------------------------------------|
A|---------------------------------------------------------------------------|
F|---------------------------------------------------------------------------|
C|-2------------------------------------------------------9-9-9-9-9-9-9-9----|
G|-2-------------------------------------------------------------------------|
D|-0-------------------------------------------------------------------------|

Chorus
D|-0--------0-3--------3-3--------3------------------------------------------|
A|-3--------3-3--------3-3--------3------------------------------------------|
F|-2--------2-0--------0-0--------0------------------------------------------|
C|-0--------0-2--------2-0--------0------------------------------------------|
G|------------3--------3-x--------x------------------------------------------|
D|-----------------------3--------3------------------------------------------|

Bridge
D|---------------------------------------------------------------------------|
A|---------------------------------------------------------------------------|
F|---------------------------------------------------------------------------|
C|---------------------------------------------------------------------------|
G|-----------------------------------3-----------------5---------------------|
D|-0-------------------------------------------------------------------------|

Figure out yourself
            
Submit corrections

comments powered by Disqus
↑ Back to top | Shihad Tabs for General Electrical. Lyrics for acoustic guitar and electric guitar. 1 Tablatures and chords are parodies/interpretations of the original songs. You may use it for private study, scholarship, research or language learning purposes only