» » »

Shelter, Revealed In Reflection Tabs (ver.1)

Artists:  A B C D E F G H I J K L M N O P Q R S T U V W X Y Z # 

Revealed In Reflection Tabs (ver.1)

Shelter Tabs
 Rating:
4/5 (4 votes)
Revealed In Reflection lessons Tabs too difficult? Try these video lessons and learn fast
                


   Intro
E|--------------------------------------------------------
B|--------------------------------------------------------
C|--------------------------------------------------------
D|--10---10----10-10--------------------------------------
A|--8----8-----8--8---------------------------------------
E|--------------------------------------------------------

   Verse 
E|-------------------------------------------------------------
B|-------------------------------------------------------------
C|-------------------------------------------------------------
D|-------------------------------------------------------------
A|-------------------------------------------------------------
E|--1-1-1--5-5-5--3-3-3--5-5--1---1-1-1--5-5-5--3-3-3--5-5--1--

E|-------------------------------------------------------------
B|-------------------------------------------------------------
C|-------------------------------------------------------------
D|--3-3-3-3--7-7-7-7--5-5-5-5-5--------------------------------
A|--3-3-3-3--7-7-7-7--5-5-5-5-5--------------------------------
E|--1-1-1-1--5-5-5-5--3-3-3-3-3--------------------------------

   Chorus
E|---------------------------------------------------------
B|---------------------------------------------------------
C|---------------------------------------------------------
D|--7-7-7--5--7--8-8-8-8-8---10-10-12-10---10-10-12-10-----
A|--7-7-7--5--7--8-8-8-8-8---10-10-10-10---10-10-10-10-----
E|--5-5-5--3--5--6-6-6-6-6---8--8--8--8----8--8--8--8------

E|---------------------------------------------------------
B|---------------------------------------------------------
C|---------------------------------------------------------
D|--10-10-12-10---10-10-12-10------------------------------
A|--10-10-10-10---10-10-10-10------------------------------
E|--8--8--8--8----8--8--8--8-------------------------------

E|---------------------------------------------------------
B|---------------------------------------------------------
C|---------------------------------------------------------
D|--7-7-7--5--7--8-8-8-8-8---10-10-12-10---10-10-12-10-----
A|--7-7-7--5--7--8-8-8-8-8---10-10-10-10---10-10-10-10-----
E|--5-5-5--3--5--6-6-6-6-6---8--8--8--8----8--8--8--8------

E|---------------------------------------------------------
B|---------------------------------------------------------
C|---------------------------------------------------------
D|--12-12-12-12-12-12-12-10--------------------------------
A|--10-10-10-10-10-10-10-10--------------------------------
E|--8--8--8--8--8--8--8--8---------------------------------

   Verse 
E|-------------------------------------------------------------
B|-------------------------------------------------------------
C|-------------------------------------------------------------
D|-------------------------------------------------------------
A|-------------------------------------------------------------
E|--1-1-1--5-5-5--3-3-3--5-5--1---1-1-1--5-5-5--3-3-3--5-5--1--

E|-------------------------------------------------------------
B|-------------------------------------------------------------
C|-------------------------------------------------------------
D|--3-3-3-3--7-7-7-7--5-5-5-5-5--------------------------------
A|--3-3-3-3--7-7-7-7--5-5-5-5-5--------------------------------
E|--1-1-1-1--5-5-5-5--3-3-3-3-3--------------------------------

   Chorus
E|---------------------------------------------------------
B|---------------------------------------------------------
C|---------------------------------------------------------
D|--7-7-7--5--7--8-8-8-8-8---10-10-12-10---10-10-12-10-----
A|--7-7-7--5--7--8-8-8-8-8---10-10-10-10---10-10-10-10-----
E|--5-5-5--3--5--6-6-6-6-6---8--8--8--8----8--8--8--8------

E|---------------------------------------------------------
B|---------------------------------------------------------
C|---------------------------------------------------------
D|--10-10-12-10---10-10-12-10------------------------------
A|--10-10-10-10---10-10-10-10------------------------------
E|--8--8--8--8----8--8--8--8-------------------------------

E|---------------------------------------------------------
B|---------------------------------------------------------
C|---------------------------------------------------------
D|--7-7-7--5--7--8-8-8-8-8---10-10-12-10---10-10-12-10-----
A|--7-7-7--5--7--8-8-8-8-8---10-10-10-10---10-10-10-10-----
E|--5-5-5--3--5--6-6-6-6-6---8--8--8--8----8--8--8--8------

E|---------------------------------------------------------
B|---------------------------------------------------------
C|---------------------------------------------------------
D|--12-12-12-12-12-12-12-10--------------------------------
A|--10-10-10-10-10-10-10-10--------------------------------
E|--8--8--8--8--8--8--8--8---------------------------------


E|---------------------------------------------------------
B|---------------------------------------------------------
C|---------------------------------------------------------
D|--6-6-6-6-6--8-8-8-8-8--3-3-3-3-3-3-3-3-3----------------
A|--6-6-6-6-6--8-8-8-8-8--3-3-3-3-3-3-3-3-3----------------
E|--4-4-4-4-4--6-6-6-6-6--1-1-1-1-1-1-1-1-1----------------

E|---------------------------------------------------------
B|---------------------------------------------------------
C|---------------------------------------------------------
D|--6-6-6-6-6--8-8-8-8-8--3-3-3-3-3-3-3-3-3----------------
A|--6-6-6-6-6--8-8-8-8-8--3-3-3-3-3-3-3-3-3----------------
E|--4-4-4-4-4--6-6-6-6-6--1-1-1-1-1-1-1-1-1----------------

E|---------------------------------------------------------
B|---------------------------------------------------------
C|---------------------------------------------------------
D|--6-6-6-6-6--8-8-8-8-8--10-10-10-10-10-10-10--3----------
A|--6-6-6-6-6--8-8-8-8-8--10-10-10-10-10-10-10--3----------
E|--4-4-4-4-4--6-6-6-6-6--8--8--8--8--8--8--8---1----------

   Verse 
E|-------------------------------------------------------------
B|-------------------------------------------------------------
C|-------------------------------------------------------------
D|--3-3-3--7-7-7--5-5-5--7-7--3---3-3-3--7-7-7--5-5-5--7-7--3--
A|--3-3-3--7-7-7--5-5-5--7-7--3---3-3-3--7-7-7--5-5-5--7-7--3--
E|--1-1-1--5-5-5--3-3-3--5-5--1---1-1-1--5-5-5--3-3-3--5-5--1--

E|-------------------------------------------------------------
B|-------------------------------------------------------------
C|-------------------------------------------------------------
D|--3-3-3-3--7-7-7-7--5-5-5-5-5--------------------------------
A|--3-3-3-3--7-7-7-7--5-5-5-5-5--------------------------------
E|--1-1-1-1--5-5-5-5--3-3-3-3-3--------------------------------

   Chorus
E|---------------------------------------------------------
B|---------------------------------------------------------
C|---------------------------------------------------------
D|--7-7-7--5--7--8-8-8-8-8---10-10-12-10---10-10-12-10-----
A|--7-7-7--5--7--8-8-8-8-8---10-10-10-10---10-10-10-10-----
E|--5-5-5--3--5--6-6-6-6-6---8--8--8--8----8--8--8--8------

E|---------------------------------------------------------
B|---------------------------------------------------------
C|---------------------------------------------------------
D|--10-10-12-10---10-10-12-10------------------------------
A|--10-10-10-10---10-10-10-10------------------------------
E|--8--8--8--8----8--8--8--8-------------------------------

E|---------------------------------------------------------
B|---------------------------------------------------------
C|---------------------------------------------------------
D|--7-7-7--5--7--8-8-8-8-8---10-10-12-10---10-10-12-10-----
A|--7-7-7--5--7--8-8-8-8-8---10-10-10-10---10-10-10-10-----
E|--5-5-5--3--5--6-6-6-6-6---8--8--8--8----8--8--8--8------

E|---------------------------------------------------------||
B|---------------------------------------------------------||
C|---------------------------------------------------------||
D|--12-12-12-12-12-12-12-10----------3---------------------||
A|--10-10-10-10-10-10-10-10----------3---------------------||
E|--8--8--8--8--8--8--8--8-----------1---------------------||
            
Submit corrections

comments powered by Disqus
↑ Back to top | Shelter Tabs for Revealed In Reflection. Lyrics for acoustic guitar and electric guitar. Tablatures and chords are parodies/interpretations of the original songs. You may use it for private study, scholarship, research or language learning purposes only