» » »

Pour Out Tabs (ver.1)

Artists:  A B C D E F G H I J K L M N O P Q R S T U V W X Y Z # 

Pour Out Tabs (ver.1)

Shawn Mcdonald
Rating:
0/5 (0 votes)

Hard to play? Try these video lessons and learn fast.
                (Live)
This is how it is when he plays in live... CD version is on the 6th capo i believe...
(Numbers are a little misplacedto the lyrics. just listen to the song and you'll catch 
the verses are out of the chord C.)
Capo 3
Verse 1:
     Pour Out your water,    that i might take a sip.
E ---------------------------------------------------------|
A -3------3------3-----3-2-0--------0------------0----0-2--|
D ---------------------------------------------------------|
G ---------------------------------------------------------|
B ---1-------1-------1--1-1--------1---------1------1--1-1-|
A ---------------------------------------------------------|

     Your Love Consumes Me,        Every         Drip.
E ---------------------------------------------------------|
A -3------3------3-----3-2-0--------0------------0----0-2--|
D ---------------------------------------------------------|
G ---------------------------------------------------------|
B ---1-------1-------1--1-1--------1---------1------1--1-1-|
A ---------------------------------------------------------|

     It is like sugar.            On       my  tongue.
E -------------------------------------------------------|
A -3------3------3-----3-2-0--------0----------0----0-2--|
D -------------------------------------------------------|
G -------------------------------------------------------|
B ---1-------1-------1--1-1--------1-------1------1--1-1-|
A -------------------------------------------------------|

     Pour out your water.  That i might take a sip.
E -----------------------------------------------------|
A -3------3------3-----3-2-0--------0------------0---0-|
D -----------------------------------------------------|
G -----------------------------------------------------|
B ---1-------1-------1--1-1--------1---------1------1--|
A -----------------------------------------------------|
Chorus:
             Your Word     is a lamp unto my feet.
E 0-1-----1-------3------3-------------------------|
A ------------------------------3------2-----0---0-|
D -------------------------------------------------|
G ----0------0---------0------0--------------------|
B -----------------------------------1----1-----1--|
E -------------------------------------------------|

      As i walk down these dark and lonely streets.
E 0-1-----1-------3------3-------------------------|
A ------------------------------3------2-----0---0-|
D -------------------------------------------------|
G ----0------0---------0------0--------------------|
B -----------------------------------1----1-----1--|
E -------------------------------------------------|

      You are all           i need (Back to the verse tab)
E 0-1-----1-------3------3-|
A -------------------------|
D -------------------------|
G ----0------0---------0---|
B -------------------------|
E -------------------------|


Verse 2
Chorus
            
Hard to play? Try these video lessons and learn fast. | Correct




comments powered by Disqus
↑ Back to top | Tablatures and chords are parodies/interpretations of the original songs. You may use it for private study, scholarship, research or language learning purposes only