» » »

Shawn Mcdonald, Have You Ever Tabs (ver.2)

Artists:  A B C D E F G H I J K L M N O P Q R S T U V W X Y Z # 

Have You Ever Tabs (ver.2)

Shawn Mcdonald Tabs
Rating:
3/5 (2 votes)
Have You Ever lessons Tabs too difficult? Try these video lessons and learn fast
                -------------------------------------------------------------------------------
			 Have You Ever - Shawn McDonald
-------------------------------------------------------------------------------

Tuning:Standard, Capo on 5th Fret

This is the right way.  The other version on here is way off.  I still haven't figured 
the picking, but at least the notes are right.

e|---------------------------------------------------------------------------|
B|-1-----1-----3-----3-----5-----5-----5-0-1-----1-----3-----3---------------|
G|---0-----0-----0-----0-----0-----0---------0-----0-----0-----0-------------|
D|-----2-----2-----0-----0-----0-----0---------2-----2-----0-----0-----------|
A|-0-----------2-----------3-----------3-0-0-----------2---------------------|
E|---------------------------------------------------------------------------|

e|---------------------------------------------------------------------------|
B|-0-----1-----1-----1-----3-----5-----5-----5-0-1-----1-----3-----3---------|
G|---0-----0-----0-----0-----0-----0-----0---------0-----0-----0-----0-------|
D|-----0-----0-----2-----2-----0-----0-----0---------2-----2-----0-----0-----|
A|-3-----------0-----------2-----3-----------3-0-0-----------2---------------|
E|---------------------------------------------------------------------------|

e|---------------------------------------------------------------------------|
B|-0-----1-------------------------------------------------------------------|
G|---0-----0-----------------------------------------------------------------|
D|-----0-----0---------------------------------------------------------------|
A|-3-------------------------------------------------------------------------|
E|---------------------------------------------------------------------------|
		Repeat this until he starts the chorus
e|---------------------------------------------------------------------------|
B|-8-----8-----7-----7-----3-----3-----5-----5-----8-----8-------------------|
G|---0-----0-----0-----0-----0-----0-----0-----0-----0-----0-----------------|
D|-----0-----0-----0-----0-----0-----0-----0-----0-----0-----0---------------|
A|-7-----------5-----------2-----------3-----------7-------------------------|
E|---------------------------------------------------------------------------|

e|---------------------------------------------------------------------------|
B|-7-----7-----3-----3-----5-----5-------------------------------------------|
G|---0-----0-----0-----0-----0-----0-----------------------------------------|
D|-----0-----0-----0-----0-----0-----0---------------------------------------|
A|-5-----------2-----------3-------------------------------------------------|
E|---------------------------------------------------------------------------|

That's really all there is to it.  I know the picking is way off, but these
ARE the right notes.  Just listen to the song and see if you can figure
it out.  You can e-mail me if you figure it out...I'd like to know too!
            

comments powered by Disqus
↑ Back to top | Shawn Mcdonald Tabs for Have You Ever. Lyrics for acoustic guitar and electric guitar. Tablatures and chords are parodies/interpretations of the original songs. You may use it for private study, scholarship, research or language learning purposes only