» » »

C'mon Aussie C'mon Bass tabs (ver.1)

Artists:  A B C D E F G H I J K L M N O P Q R S T U V W X Y Z # 

C'mon Aussie C'mon Bass tabs (ver.1)

Shannon Noll
Rating:
0/5 (0 votes)

Hard to play? Try these video lessons and learn fast.
                Shannon Noll - c'mon aussie c'mon
Tuning: Standard (EADG)

I play this song with a few more hammer ons and stuff to make it
a little funner on the bass, i didn't add those in though.
I would like to think this tab is pretty accurate. lemme know if you think different.

The exact number of notes played in each bit may vary compared to what I've put so you 
have to adapt a lil.


s = slide
~ = Let ring
h = hammer on
p = pull off


Intro: No bass


Verse  (0:28)
|---------------------------------------------------------------|
|---------------------------------------------------------------|
|------------5-5-550-------5-5-550-------5-5-550-------5-5-550--|
|--0~--5-5-5---------5-5-5---------5-5-5---------5-5-5----------|

|--------------------------------------------------------------|
|--------------------------------------------------------------|
|------------5-5-55--4-4-4---------------------------7~7~------|
|------5-5-5----------------2-2-22-0--7-7-7--7-7-770-----------|

Chorus (0:47)
|--------------------------------------------------------------|
|--------------------------------------------------------------|
|-5-5-5-7-7-77-0------------------5-5-5-7-7-77-----------------|
|----------------5-5-5-2-2-22-0--------------------------------|

Pre-2nd verse bass fill
|--------------------------------------------------------------|
|--------------------------------------------------------------|
|--------------------------------------------------------------|
|-5-5-5-5-5-55-0-5-5-5-5-5-55-0--------------------------------|

Verse 2 (0:54)
|--------------------------------------------------------------|
|--------------------------------------------------------------|
|---------5-5-550-------5-5-550-------5-5-550--------5-5-550---|
|---5-5-5---------5-5-5---------5-5-5---------5-5-5------------|

|--------------------------------------------------------------|
|--------------------------------------------------------------|
|------------5-5-55--4-4-4----------------------------7~7~-----|
|------5-5-5----------------2-2-222-0--7-7-7--7-7-770----------|


Chorus (1:17)
|--------------------------------------------------------------|
|--------------------------------------------------------------|
|-5-5-5-7-7-77-0----------------5-5-5-7-7-77-0-----------------|
|----------------5-5-5-2-2-22-0----------------5-5-5-2-2-22-0--|

|--------------------------------------------------------------|
|--------------------------------------------------------------|
|-5-5-5-7-7-77-0------------------5-5-5-7-7-77-0---------------|
|----------------5-5-5-2-2-22-0--------------------------------|

Bridge (and the guitar solo) (1:33)
|--------------------------------------------------------------|
|--------------------------------------------------------------|
|--------------------------------------------------------------|
|-5-5-5-5-5-55-0-5-5-5-5-5-55-0--------------------------------|

|--------------------------------------------------------------|
|--------------------------------------------------------------|
|---------------------------------5-5-5-550-1-1-1-1-1-1-11-0---|
|-5-5-5-5-5-55s7s8-8-8-8-8-8-88-0------------------------------|

|--------------------------------------------------------------|
|--------------------------------------------------------------|
|---------------------------------5-5-5-550-1-1-1-1-1-1-11-0---|
|-5-5-5-5-5-55s7s8-8-8-8-8-8-88-0------------------------------|

|--------------------------------------------------------------|
|--------------------------------------------------------------|
|-5-5-5-7-7-77-0----------------5-5-5-7-7-77-0-----------------|
|----------------5-5-5-2-2-22-0----------------5-5-5-2-2-22-0--|

|--------------------------------------------------------------|
|--------------------------------------------------------------|
|-5-5-5-7-7-77-0------------------5-5-5-7-7-77-----------------|
|----------------5-5-5-2-2-22-0----------------5~7~------------|

Key change
Verse 3 (2:15)
|--------------------------------------------------------------|
|--------------------------------------------------------------|
|---------7-7-770-------7-7-770-------7-7-770--------7-7-770---|
|---7-7-7---------7-7-7---------7-7-7----------7-7-7-----------|

|--------------------------------------------------------------|
|--------------------------------------------------------------|
|---------7-7-77--6-6-6---------------------------9~9~---------|
|---7-7-7----------------4-4-44-0--9-9-9--9-9-990--------------|

Chorus (2:34)
|-----------------------------------------------------8-11-8p6-|
|--------------------------------------------------9-----------|
|-7-7-7-9-9-99-0------------------7-7-7-9-9-9~-9h11-11---------|
|----------------7-7-7-4-4-44-0--------------------------------|

Verse 3 (2:43)
|--------------------------------------------------------------|
|--------------------------------------------------------------|
|---------7-7-770-------7-7-770-------7-7-770--------7-7-770---|
|---7-7-7---------7-7-7---------7-7-7----------7-7-7-----------|

|--------------------------------------------------------------|
|--------------------------------------------------------------|
|---------7-7-77--6-6-6---------------------------9~9~9-8------|
|---7-7-7----------------4-4-44-0--9-9-9--9-9-990--------------|

Chorus (3:02)
|--------------------------------------------------------------|
|--------------------------------------------------------------|
|-5-5-5-7-7-77-0----------------5-5-5-7-7-77-0-----------------|
|----------------5-5-5-2-2-22-0----------------5-5-5-2-2-22-0--|

|--------------------------------------------------------------|
|--------------------------------------------------------------|
|-5-5-5-7-7-77-0----------------5-5-5-7-7-77~------------------|
|----------------5-5-5-2-2-22-0--------------------------------|

[END]
            
Hard to play? Try these video lessons and learn fast. | Correct




comments powered by Disqus
↑ Back to top | Tablatures and chords are parodies/interpretations of the original songs. You may use it for private study, scholarship, research or language learning purposes only