» » »

Sana Tabs (ver.3)

Artists:  A B C D E F G H I J K L M N O P Q R S T U V W X Y Z # 

Sana Tabs (ver.3)

Shamrock
Rating:
0/5 (0 votes)

Hard to play? Try these video lessons and learn fast.
                yo pipz paki rate nALANG....
FIRST TAB EH.....

Sana
By Shamrock

Intro:

e[--------------0-------------|---------------0-------------]
B[---0-------------------0----|---0--0----------------------]
G[--------2------------2---2--|-----------2-----------------]
D[------------------2---------|-----------------------------]
A[---0------------------------|---0-------------------------]
E[----------------------------|-----------------------------]

e[---------------------|------------------------------------]
B[---3--2--0-----------|---2h4--1---------------------------]
G[-----------2--2/4----|---2----2---------------------------]
D[---0-----------------|------------------------------------]
A[---------------------|------------------------------------]
E[---------------------|------------------------------------]

pag refrain use these chords nalang


Refrain ata

    F#m    E    D2
e[----0----0----0-----0-----------------------------------]
B[----0----0----3-----0-----------------------------------]
G[----2----1----2-----1-----------------------------------]
D[----4----2----0-----2-----------------------------------]
A[----4----2----------2-----------------------------------]
E[----x----0----------0-----------------------------------]

Tapos sa chorus

Do chords

A2-AM9-D2-E


Ung adlib same as chorus lang ata?

senxa na di ko kabisado ung song....
kayo na bhala sa bara ha?

hehe tama tamain nyo lang ok hehe

hi to my baby edz....
            
Hard to play? Try these video lessons and learn fast. | Correct




comments powered by Disqus
↑ Back to top | Tablatures and chords are parodies/interpretations of the original songs. You may use it for private study, scholarship, research or language learning purposes only