» » »

Sana Tabs (ver.2)

Artists:  A B C D E F G H I J K L M N O P Q R S T U V W X Y Z # 

Sana Tabs (ver.2)

Shamrock
Rating:
0/5 (0 votes)
Tabs too difficult? Try these video lessons and learn fast.
                Madali lang itong tab na to kayo na bahala kung papano nyo pagagandahin ang tunog pwede 
lang kung nahihirapan kayo or mas maganda kung plucking para katunog ng organ.... Drop E
Pls.. Vote ... Thanks for the Add ...


Intro:

e[--------------0----------------------------0----------]
B[---0--------------------------0--0--------------------]
G[--------2---------------2-------------2---------------]
D[------------------2-----------------------------------]
A[------------------------------------------------------]
E[------------------------------------------------------]

e[--------------------0---------------------------0-----]
B[------------0---------------------5---3---------3-----]
G[-------2-------0-------------2------------------2-----]
D[---4--------------------0-----------------------0-----]
A[------------------------------------------------x-----]
E[------------------------------------------------x-----]

Verse, Chorus, Etc….

e[----0---------] [---0--------] [------0------][-----0------]
B[----0---------] [---0--------] [------0------][-----3------]
G[----2---------] [---1--------] [------2------][-----2------]
D[----2---------] [---2--------] [------4------][-----0------]
A[----x---------] [---x--------] [------x------][-----x------]
E[----x---------] [---x--------] [------x------][-----x------]
            
Tabs too difficult? Try these video lessons and learn fast.


comments powered by Disqus
↑ Back to top | Tablatures and chords are parodies/interpretations of the original songs. You may use it for private study, scholarship, research or language learning purposes only