» » »

Hold On Tabs (ver.2)

Artists:  A B C D E F G H I J K L M N O P Q R S T U V W X Y Z # 

Hold On Tabs (ver.2)

Shamrock
Rating:
5/5 (2 votes)

Tabs too difficult? Try these video lessons and learn fast.
                Hold on


SOLO:
     It`s a little Tricky. Try nyo lng...
     Hope its sounds good to you.

       PM PM           PM PM           PM PM
e|--------------------------------------------------|
B|---6-------8--6----6-------8--6----8-------10--8--|
G|------5-5-------------5-5-------------7-7---------|
D|--------------------------------------------------|
A|--------------------------------------------------|
E|--------------------------------------------------|


e|-10p-8p--6----------------------------------------|
B|------------10p-8p--6-----------------------------|
G|----------------------9p-7p5-9p-7p5-------7~~-----|
D|--------------------------------------8-----------|
A|--------------------------------------------------|
E|--------------------------------------------------|

    PM-------------------------------------------------------|PM
e|-----------------------------------------------------------|
B|---------------------------10p-8---------------------------|
G|--------------------7h9p-7--------9~~-----7b==r/9-\7~~~----|
D|--------7-----9--7-----------------------------------------|
A|--7--9-----9-----------------------------------------------|
E|-----------------------------------------------------------|

                                      AH
e|-----------------------------------------|
B|-------------------------11--13b====r----|
G|---------------10h-12h-14----------------|
D|-----10h-12h-14--------------------------|
A|---13------------------------------------|
E|-----------------------------------------|


e|-----------------------------------|
B|--13--11--13~~----\\-----13b====---|
G|-----------------------------------|
D|-----------------------------------|
A|-----------------------------------|
E|-----------------------------------|


e|------------------------------------------------------------|
B|--11h13-13p11-----------------------------------------------|
G|-------------14p-12p-10-------------------------10h-12h-14--|
D|-----------------------14p-12p-10-----10h-12h-14------------|
A|----------------------------------13------------------------|
E|------------------------------------------------------------|


e|------------------------------------------------------------|
B|---------------------------------------------------11h--13h-|
G|-14p--12p--10---------------------------10h-12h-14----------|
D|--------------14p--12p-10-----10h-12h-14--------------------|
A|--------------------------13--------------------------------|
E|------------------------------------------------------------|

e|---------------------------|
B|--15---15~~-15~~~~---------|
G|---------------------------|
D|---------------------------|
A|---------------------------|
E|---------------------------|


Tablature Legend:

  h      --- hammer on
  p      --- pull off
  b      --- bend
  r      --- bend release
  ===    --- bend hold
  /      --- slide forward ,\ -- backward, --//-\\ nowhere
  ~      --- Let ring
  AH     --- Artificial Harmonic
  PM     --- Palm Muted
  T      --- Tap


             Calinan Davao City, Philliphines
             Peace... Rock On...
            
Tabs too difficult? Try these video lessons and learn fast.


comments powered by Disqus
↑ Back to top | Tablatures and chords are parodies/interpretations of the original songs. You may use it for private study, scholarship, research or language learning purposes only