» » »

Shamrock, Hold On Tabs (ver.1)

Artists:  A B C D E F G H I J K L M N O P Q R S T U V W X Y Z # 

Hold On Tabs (ver.1)

Shamrock Tabs
Rating:
2/5 (1 vote)
Hold On lessons Tabs too difficult? Try these video lessons and learn fast
                

Intro:

e|--------------------------------|
B|--3------2-2----2------0--0-----|
G|--4--t---2------2---t--0--0-----|
D|---4-a----2-2----2--a---0-------|
A|--2--p---2------2---p------0----|
E|-----------------------3--3-----|

e|--------------------------------|
B|--3------2--2---2------0--0-----|
G|--4--t---2---2--2---t--0--0-----|
D|---4-a-----------2--a---0-------|
A|--2--p---2------2---p------0----|
E|-----------------------3--3-----|



Verse 1
	
e|-----------------------------------|
B|--3-------2-2---2---------0--0-----|
G|--4--t----2-2---2---t-----0--0-----|
D|---4-a-----------2--a------0-------|
A|--2--p----2-2---2---p---------0----|
E|--------------------------3--3-----|

Hey, lady,  how’s life been movin’ on?

e|---------------------------------|
B|--3------2-2-----2------0--0-----|
G|--4--t---2-------2---t--0--0-----|
D|---4-a----2-2-----2--a---0-------|
A|--2--p---2-------2---p------0----|
E|------------------------3--3-----|

I can’t deny it, now you are gone

e|-----------------------------------|
B|--3-------2-----2---------0--0-----|
G|--4--t----2-2---2---t-----0--0-----|
D|---4-a-----2-2---2--a------0-------|
A|--2--p----2-----2---p--------------|
E|--------------------------3--3-----|

This is the first time, can I make it through?


e|-----------------------------------|
B|---0---3-3---3----3-3--------------|
G|----0----------0-------------------|
D|--------0-0---0----0---------------|
A|--2--------------------------------|
E|-0-----2-----3----3-3--------------|	


Without you now, do the things I used to do

e|-----------------------------------|
B|--3-------2-2---2---------0--0-----|
G|--4--t----2-----2---t-----0--0-----|
D|---4-a-------2---2--a------0-------|
A|--2--p----2-----2---p---------0----|
E|--------------------------3--3-----|

It’s getting harder to ease the pain

e|---------------------------------|
B|--3------2-2-----2------0--0-----|
G|--4--t---2-------2---t--0--0-----|
D|---4-a----2-2-----2--a---0-------|
A|--2--p---2-------2---p------0----|
E|------------------------3--3-----|

The feeling changes, love still remains

e|-----------------------------------|
B|--3------2-2-----2------3--3-------|
G|--4--t---2-------2---t-------------|
D|---4-a----2-2-----2--a---0---------|
A|--2--p---2-----------p-------------|
E|-----------------3------3--3--2---|

I don’t know how if I can get this right

e|-0---------------------------------|
B|-0---3-3---3-----3--3---------------|
G|-0---2--2---0----2--2---------------|
D|-2----0--0---0----------------------|
A|-2---------------0--0---------------|
E|-0---2-----3------------------------|

Maybe given time I’ll make the most of what I’ve got


Refrain:
G		     
 Is this the price we pay
F#m
 With all the victories we shared
Em		          D9		  
 Faithfully, we’ve got a reason to go on
G		        
 I know it’s good to be true
F#m			  
Just spend the nights with you
Em		           A
 Let me tell you that our love can make it through

Chorus:
D9             Bm
Hold on, lady hold on
       G       F#m
We’ve got to go on now
      G		   A
This feeling so strong
D9             Bm
Hold on, lady hold on
       Em         F#m
It’s a burning desire
        G              A
Comin’ right down the wire


Verse 2
e|-----------------------------------|
B|--3-------2-2---2---------0--0-----|
G|--4--t----2-2---2---t-----0--0-----|
D|---4-a-------2---2--a------0-------|
A|--2--p----2-2---2---p---------0----|
E|--------------------------3--3-----|

Sweet talking it’s all in the line

e|---------------------------------|
B|--3------2-2-----2------0--0-----|
G|--4--t---2-------2---t--0--0-----|
D|---4-a----2-2-----2--a---0-------|
A|--2--p---2-------2---p------0----|
E|------------------------3--3-----|

There’s no turning back, unless you make up your mind

e|-----------------------------------|
B|--3------2-2-----2------0--0-------|
G|--4--t---2-------2---t--0--0-------|
D|---4-a----2-2-----2--a---0---------|
A|--2--p---2-----------p-------------|
E|-----------------2-------3--3--2---|

The expectations after all of these years 

Em             F#m            G            A
Risin’ to the moment let’s forget all our fears

Refrain:
G
 Is this the love we have
F#m
 With all the glories we shared
Em                        D
 Faithfully, we’ve got a reason to go on
G
 I know it’s good to be true
F#m                           
 Just spend the nights with you
Em                         A
 Let me tell you that our love can make it through

Chorus:
D9            Bm
Hold on, lady hold on
       G       F#m
We’ve got to go on now
      G		  A
This feeling so strong
D9            Bm
Hold on, lady hold on
       Em         F#m
It’s a burning desire
        G              A
Comin’ right down the wire

Adlib: (Bb - C) 3x - D

Bridge:
G                       G/F#
 And when the night is over
         G
 Well, no one can deny it
D
Got to believe in
G                     G/F#
 We couldn’t ask for more
                         G
Than to hold each other tight
                       Em              F#m   A
It’s just we’ll never take things for granted

Chorus:
D9                      Bm
Hold on (hold on), lady hold on
       G       F#m
We’ve got to go on now
      G            A
This feeling so strong

D9                      Bm 
Hold on (hold on), lady hold on
        C
It’s a burning desire
        A
Comin’ right down the wire

Chorus:
D9            Bm
Hold on, lady hold on (hold on)
       G       F#m
We’ve got to go on now
      G            A
This feeling so strong (feeling so strong)
D9            Bm
Hold on, lady hold on
        C	  Bm
It’s a burning desire
        Bb
Comin’ right down 
 A                D9
Right down the wire


Note: I'm not sure if its lady or baby...
            
Submit corrections

comments powered by Disqus
↑ Back to top | Shamrock Tabs for Hold On. Lyrics for acoustic guitar and electric guitar. Tablatures and chords are parodies/interpretations of the original songs. You may use it for private study, scholarship, research or language learning purposes only