» » »

Alipin Tabs (ver.2)

Artists:  A B C D E F G H I J K L M N O P Q R S T U V W X Y Z # 

Alipin Tabs (ver.2)

Shamrock
Rating:
5/5 (4 votes)

Hard to play? Try these video lessons and learn fast.
                (Intro)
Band: Shamrock
Part of Song: Intro

This part uses standard tuning on strings.
This is the intro part of the song.
99.9% sure...


    G          Bm       C
e|-----3------|-----2-|-0-----------0---------|
B|-3-----3----|-3-----|-------1---1---1---1---|
G|---------4--|---4---|-----0---0-------0---0-|
D|---5--------|-------|-----------------------|
A|------------|-2-----|-3---------------------|
E|-3----------|-------|-----------------------|


    G          Bm       C
e|-----3------|-----2-|-0-----------0---------|
B|-3-----3----|-3-----|-------1---1---1---1p0-|
G|---------4--|---4---|-----0---0-------0-----|
D|---5--------|-------|-----------------------|
A|------------|-2-----|-3---------------------|
E|-3----------|-------|-----------------------|

Then Verse Starts...I'm not finish yet with the whole song,
so I tabbed the intro to give idea to other guitar players.
Feel free to comment...
            
Hard to play? Try these video lessons and learn fast. | Correct




comments powered by Disqus
↑ Back to top | Tablatures and chords are parodies/interpretations of the original songs. You may use it for private study, scholarship, research or language learning purposes only