» » »

Shamrock, Alipin Tabs (ver.5)

Artists:  A B C D E F G H I J K L M N O P Q R S T U V W X Y Z # 

Alipin Tabs (ver.5)

Shamrock Tabs
 Rating:
3.4/5 (5 votes)
Alipin lessons Tabs too difficult? Try these video lessons and learn fast
1
                Alipin: by shamrock
first time ko, ni revise ko lang ung nkita ko sana mgus2han nyo……=> medyo itinaas ko 
ung chords nila pro magaling cla!

Intro:
    A          C#m      D
e|-----5------|-----4-|-2-----------2---------|
B|-5-----5----|-5-----|-------3---3---3---3---|
G|---------6--|---6---|-----2---2-------2-----|
D|---7--------|-------|-0---------------------|
A|------------|-4-----|-----------------------|
E|-5----------|-------|-----------------------|

    A          C#m      D
e|-----5------|-----4-|-2-----------2-----------|
B|-5-----5----|-5-----|-------3---3---3---3p2p0-|
G|---------6--|---6---|-----2---2-------2-------|
D|---7--------|-------|-0-----------------------|
A|------------|-4-----|-------------------------|
E|-5----------|-------|-------------------------|

VERSE 1:
    A          C#m        D          Dm
e|------------|-----4---|-2---2---I-1----3-1------|
B|-5-----5--5-|-5---5--6|-----3--3I---3--3-3------|
G|-------6----|---6-----|---2---2-I---------------|
D|---7-----7--|-------7-|-0-------I-0-------------|
A|------------|-4-------|---------I---------------|
E|-5----------|---------|---------I---------------|

REFRAIN:
    C7         Ab         Cm         Em(d meh alam ung nme ng chrds d2eh
e|----3-------|---------|-----3---I-2---4--4--4-4-3-|
B|---3--3-----|-6---6--7|-3---4--4I-4---4---4-4---4-|
G|--3----3----|-----5---|---3---3-I---3---3---------|
D|-5----------|---8---8-|---------I-0---------------|
A|------------|---------|-3-------I-----------------|
E|------------|-6-------|---------I-----------------|
CHORUS:
    A          C#m        D          Dm
e|------------|-----4---|-2---2---I----1--1-------|
B|-5-----5--5-|-5---5--6|-----3--3I---3--3--------|
G|-------6----|---6-----|---2---2-I--2------------|
D|---7-----7--|-------7-|-0-------I-0-------------|
A|------------|-4-------|---------I---------------|
E|-5----------|---------|---------I---------------|

    A          C#m        D          Dm
e|------------|-----4---|-2---2---I-1----3-1------|
B|----5--5----|-5---5--6|-----3--3I---3--3-3------|
G|---6—-6-----|---6-----|---2---2-I---------------|
D|--7---------|-------7-|-0-------I-0-------------|
A|-7----------|-4-------|---------I---------------|
E|------------|---------|---------I---------------|


Repeat Intro:
    A          C#m      D
e|-----5------|-----4-|-2-----------2---------|
B|-5-----5----|-5-----|-------3---3---3---3---|
G|---------6--|---6---|-----2---2-------2-----|
D|---7--------|-------|-0---------------------|
A|------------|-4-----|-----------------------|
E|-5----------|-------|-----------------------|

    A          C#m      D
e|-----5------|-----4-|-2-----------2---------|
B|-5-----5----|-5-----|-------3---3---3---3---|
G|---------6--|---6---|-----2---2-------2-----|
D|---7--------|-------|-0---------------------|
A|------------|-4-----|-----------------------|
E|-5----------|-------|-----------------------|


e|---12-harmonics---------------------------|
B|---12-harmonics---------------------------|
G|---12-harmonics---------------------------|
D|-----------|------------------------------|
A|-----------|------------------------------|
E|-----------|------------------------------|


VERSE 2:
    A          C#m        D          Dm
e|------------|-----4---|-2---2---I-1----3-1------|
B|-5-----5--5-|-5---5--6|-----3--3I---3--3-3------|
G|-------6----|---6-----|---2---2-I---------------|
D|---7-----7--|-------7-|-0-------I-0-------------|
A|------------|-4-------|---------I---------------|
E|-5----------|---------|---------I---------------|

REFRAIN:
    C7         Ab         Cm         Em yata?!
e|----3-------|---------|-----3---I-2---4--4--4-4-3-|
B|---3--3-----|-6---6--7|-3---4--4I-4---4---4-4---4-|
G|--3----3----|-----5---|---3---3-I---3---3---------|
D|-5----------|---8---8-|---------I-0---------------|
A|------------|---------|-3-------I-----------------|
E|------------|-6-------|---------I-----------------|

CHORUS:
    A          C#m        D          Dm
e|------------|-----4---|-2---2---I----1--1-------|
B|-5-----5--5-|-5---5--6|-----3--3I---3--3--------|
G|-------6----|---6-----|---2---2-I--2------------|
D|---7-----7--|-------7-|-0-------I-0-------------|
A|------------|-4-------|---------I---------------|
E|-5----------|---------|---------I---------------|


 A          C#m        D             Dm
e|------------|-----4---|-2---2---I-1----3-1------|
B|----5--5----|-5---5--6|-----3--3I---3--3-3------|
G|---6—-6-----|---6-----|---2---2-I---------------|
D|--7---------|-------7-|-0-------I-0-------------|
A|-7----------|-4-------|---------I---------------|
E|------------|---------|---------I---------------|

ADLIB:
e|-----------|--------------------------------|
B|-----------|--------------------------------|
G|-----------|--------------------------------|
D|-7-----9-9-|---7-9-9/11-12-11-9-9--7-7--9-9-|
A|---7-7-----|-9------------------------------|
E|-----------|--------------------------------|

e|-------------------|--------------------------------------------|
B|-------------------|--------------------------------------------|
G|-------------------|--------------------------------------------|
D|-----12-11-9-11----|-----12-11-9-7/9-7---9-7-6-7-7/12-11-9-7----|
A|-7h9-----------12--|-7h9-------------------------------------7--|
E|-------------------|--------------------------------------------|

alipin
shamrock
verse: A-C#m-D-Dm
di ko man maamin/
ikaw ay mahalaga sa akin/
di ko man maisip/
sa pagtulog ikaw ang panaginip/

refrain:C7-Ab-Cm-Emsus ( yata)
malabo man ….ang aking pgiisip
sana’y pakinggan mo/
ang sigaw nitong damdamin
chorus: A-C#m-D-Dm
ako’y alipin mo kahit hindi batid
aaminin ko minsan ako’y manhid
sana ay/ iyong naririnig
sa ‘yong yakap ako’y nasasabik
verse: A-C#m-D-Dm

ayoko sa iba
sa yo ako ay hindi magsasawa
ano man ang yong sabihin
umasa ka ito ay diringgin
refrain: C7-Ab-Cm-Emsus ( yata
madalas man na/ parang
aso at pusa giliw
sa piling mo ako ay masaya
chorus: A-C#m-D-Dm

ako’y alipin mo kahit hindi batid
aaminin ko minsan ako’y manhid
sana ay iyong naririnig
sa ‘yong yakap ako’y nasasabik
adlib:
pilit mang abutin ang mga tala
basta sa akin wag kang mawawala…
ako’y alipin mo kahit hindi batid
aaminin ko minsan ako’y manhid
sana ay iyong naririnig
sa ‘yong yakap ako’y nasasabik
pagkat ikaw lang ang nais makatabi
malamig man o mainit ang gabi
nais ko sanang iparating
na ikaw lamang ang syang aking…… iibigin
repeat intro:

tapos nah…..astig!!!
            
Submit corrections

comments powered by Disqus
↑ Back to top | Shamrock Tabs for Alipin. Lyrics for acoustic guitar and electric guitar. 1 Tablatures and chords are parodies/interpretations of the original songs. You may use it for private study, scholarship, research or language learning purposes only