>
 >
Alipin

Alipin Guitar Tabs

Shamrock - Alipin chords, tabs, tablatures, lyrics

Guitar lessons | Add/correct | Request | Top 50 tabs Artists:  A B C D E F G H I J K L M N O P Q R S T U V W X Y Z 0-9

Alipin Guitar Tabs – Shamrock

CD, Sheet music, Poster

Do you like Alipin? Share with your friends now
Bass TabsChordsChords v2TabsTabs v2Tabs v3Tabs v4Tabs v5Ukulele
                         ALIPIN:by Shamrock


Intro:
  G               Bmin7 .     C           Maj7       add9
E:------3--------|------2--|--0-----------------0-----------------|
B:3---------3----|3--------|--------------0----------3-----0------|
G:0-----------0--|----2----|--0-------------0------------0-----0--|
D:----0----------|---------|----------2--------------------------0|
A:--------------0|2--------|--3---------------3-------------------|
E:3--------------|---------|--------------------------------------|

  G               Bmin7 .     C           Maj7       add9
E:------3--------|------2--|--0-----------------0-----------------|
B:3---------3----|3--------|--------------0----------3-----1p0----|
G:0-----------0--|----2----|--0-------------0------------0-----0--|
D:----0----------|---------|----------2---------------------------|
A:--------------0|2--------|--3---------------3-------------------|
E:3--------------|---------|-------------------------------------0|

I.Verse:
    G(9)    *                       Bmin7
E:--------------------------------|-------------------------------|
B:--------------------------------|3-----3-T---3-----------3------|
G:-2-------T---0-----------0------|2-----2-A---0-----------0---0--|
D:-0-----0-A---0-------0---0---0-0|-------------------------------|
A:---------P----------------------|2-------P---2-----------2-----0|
E:-3------------------------------|-------------------------------|
*light tapping
                  Di  ko man  ma  a  min                        i

 C9                              D           add9
|------------0------------------|------------0-------------------|
|3-----3-T---3-----------3------|3-----3-T---3-----------3-------|
|0-----0-A---------------0---0--|2-----2-A---------------2---2---|
|-------------------------------|0-------P---0-----------0-----0-|
|3-------P---3-----------3___3p0|--------------------------------|
|-------------------------------|--------------------------------|

 kaw   ay   maha     laga    sa a   kin.

(Repeat the same chord pattern until Refrain)
Slight variation before Refrain:

 D           add9
|------------0------------------|
|3-----3-T---3-----------3---3\-|
|2-----2-A---------------2---2\-|
|0-------P---0-----------0------|
|-------------------------------|
|----------------------------0--|

Refrain:

   Amin7                           G(9)    *
E:-------------0------------------|-------------------------------|
B:-1-------1---------------1------|------------0-----------0------|
G:-0---------------------------4--|2-------T---0-----------0-----0|
D:-----2h4-------------2---------2|------0-A---0-------0-------0--|
A:-0-----------0------------------|-------------------------------|
E:--------------------------------|3-------P---3------------------|

  Mala bo      man     ang        a  king  pag -ii  sip   sa na'y

 Amin7                           D9
|0-----------------------0------|0------------------------------|
|1---1-------1-----------1------|3-----3-T---3-----------3---3--|
|0---0---T---0-----------0---0--|------2-A---2-----------2-----2|
|2-------A---2-----------2------|0-------P---0-----------0------|
|0-------P---0-----------------0|-------------------------------|
|-------------------------------|-------------------------------|

paking  gan  mo      ang      sigaw  nitong  dam  da  min

 Dsus        D
|3-----------2-------------------|
|3-----3-T---3-----------3-------|
|------2-A---------------2---2---|
|0-------P---0-----------0-------|
|------------------------------0-|
|--------------------------------|

                           Ako'y  a
Chorus:
  C9                              Bmin7       addsus4
E:-------------0------------------|2-----------2------------------|
B:-3-----3-T---3-----------3------|3-----3-T---5-----------3------|
G:-0-----0-A---------------0---0--|2-----2-A---2-----------2---0--|
D:--------------------------------|-------------------------------|
A:-3------ P---3-----------3-----0|2-------P---2-----------------0|
E:--------------------------------|-------------------------------|

   li pin mo  ka hit  hin di    ba tid                     A    a mi

 C9                          .   Emin6
|------------0-----------------|-------------0-----------------|
|3-----3-T---3-----------3-----|-0-------0---------------0-----|
|0-----0-A---0-----------4---0-|-0-----0---------------------4-|
|--------------------2---------|-4---4---------------4---------|
|3------ P---3-----------------|-------------------------------|
|------------------------------|-0-----------------------------|

    nin ko   minsan  ako'y   man hid                 sa  na  ay

Amin7
|-------------0------------------|-------------------------------|
|-1-------1---------------1------|------------0-----------0------|
|-0---------------------------4--|2-------T---0-----------------0|
|-2---2h4-------------2---------2|------0-A-----------0-------0--|
|-0-----------0------------------|--------------------------2----|
|--------------------------------|3-------P---3------------------|

                iyong  nari  ri  nig                       sayong

 Amin7                           D9
|0-----------------------0------|0------------------------------|
|1---0---T---1-----------1------|3-----3-T---3-----------3------|
|0---0---A---0-----------0---0--|------2-A---2-----------2---2--|
|------------2-----------2------|0-------P---0-----------0-----0|
|0-------P---0-----------------0|-------------------------------|
|-------------------------------|-------------------------------|

 ya  kap    ako'y    na  sa  sabik

Outro:
  G               Bmin7 .     C           Maj7       add9
E:------3--------|------2--|--0-----------------0-----------------|
B:3---------3----|3--------|--------------0----------3---------3--|
G:0-----------0--|----2----|--0-------------0----------0-----0---0|
D:----0----------|---------|----------2------------------0h2------|
A:--------------0|2--------|--3---------------3-------------------|
E:3--------------|---------|--------------------------------------|

  G               Bmin7 .     C           Maj7       add9
E:------3--------|------2--|--0-----------------0--------------(12)|
B:3---------3----|3--------|--------------0----------3-------(12)__|
G:0-----------0--|----2----|--0-------------0----------0---(12)____|
D:----0----------|---------|----------2------------------x---------|
A:--------------0|2--------|--3---------------3--------------------|
E:3--------------|---------|---------------------------------------|

(Repeat 1st Stanza Verse, Refrain and Chorus pattern for 2nd Stanza)

II.Verse: Ayoko sa iba, sayo ako ay hindi magsasawa
          anuman ang 'yong sabihin, umasa ka ikaw ay diringgin
 Refrain: Madalas man na parang aso at pusa
          giliw, sa piling mo ako ay masaya.
  Chorus: (same lyrics)
Slight variation in 2nd stanza chorus:
  C9                          .   Emin6
E:------------0-----------------|-------------0-----------------|
B:3-----3-T---3-----------3-----|-0-------0---------------0-----|
G:0-----0-A---0-----------4---0-|-0---------------------------4-|
D:--------------------2-------4-|-4---4h5-------------4---------|
A:3------ P---3-----------------|-------------------------------|
E:------------------------------|-0-----------------------------|
 mi  nin ko   minsan  ako'y   man hid                 sa  na  ay

 Amin      add9
|-------------0-------------------|
|-1-------1p0-----------0-1p0-0---|
|-------2-------------------------|
|-----2---------------2---------2-|
|-0-----------0-------------------|
|---------------------------------|
                iyong  nari  rinig
Interlude:
E:|------------------------------------------------------------|
B:|------------------------------------------------------------|
G:|------------------------------------------------------------|
D:|-----------------5\--0-0-----7-7-------------------------0h5|
A:|------------------------------------------------------------|
E:|------------------------------------------------------------|
    G                             D9
E:|-------3-----3---------------|-0-----------0h2p0h2-----0----|
B:|-3-----3-3---3---------3-----|-3-----3-3---3-------3---3----|
G:|-0-----0-0-------------0---2-|-2-----2-2-----------2---2----|
D:|-0-------0-------------0---0-|-0-------0-----------0---0----|
A:|---------------------------0-|------------------------------|
E:|-3---------------------------|------------------------------|
    ^     ^ ^   ^         ^   ^   ^     ^ ^   ^       ^   ^

  |------------------------------------------------------------|
  |------------------------------------------------------------|
  |------------------------------------------------------------|
  |7/9---10-9-----7-7\----5-5-----7-7--------------------------|
  |------------------------------------------------------------|
  |------------------------------------------------------------|
      Em                              Bmin7
  |---0-------0---------------0---|---------------2-2---------2|
  |---0-------0-----0---0-----0---|---3-----3-3---3-3---3-----3|
  |---0-----0-0---0-0---0-----0---|---2-----2-2---2-2-2-2-2---2|
  |---2-----2-2---2-2-2---2---2---|---4-------4---4---4---4---4|
  |---2-----2-2---2---2---2---2---|---2-----------2------------|
  |---0---------------0-------0---|----------------------------|
      ^     ^ ^   ^ ^ ^ ^ ^   ^       ^     ^ ^   ^ ^ ^ ^ ^   ^

E:|------------------------------------------------------------------------|
B:|------------------------------------------------------------------------|
G:|------------------------------------------------------------------------|
D:|------10---9-------7-------9------------10---9------/7-------5---7-5-4-5|
A:|--5h7--------------------------10---5h7---------------------------------|
E:|------------------------------------------------------------------------|
          Amin7                           G
E:|-------0-------0---0-0---0-----0---|------------------------------------|
B:|-------1-----1-1---1-1-1-1-----1---|---3-------0---3-----------3-3---3--|
G:|-------0-----0-0---0---0-0-0---0---|---0-----0-0---0-0---0-----0-0-0-0--|
D:|-------2-------2---2---2---2---2---|---0-----0-0---0-0-0-0-0---0---0----|
A:|-------0-----------0---------------|---2-------2-------2---2------------|
E:|-----------------------------------|---3---------------3----------------|
          ^     ^ ^   ^ ^ ^ ^ ^   ^       ^     ^ ^   ^ ^ ^ ^ ^   ^ ^ ^ ^

  |-----------------------------------------------------------------|
  |-----------------------------------------------------------------|
  |-----------------------------------------------------------------|
  |/10---9-------7-------5-------0----------------------------------|
  |-----------------------------------------------------------------|
  |-----------------------------------------------------------------|
    C                               D                   Bridge:
  |-0-----0-----0-0-0-------------|-2-------------2p0h2-------------|
  |-1-----1-0---1-1-1-1-1---1-----|-3-----3-3---3-------3---3-------|
  |-0-----0-0---0---0-0-0---0---0-|-2-----2-2-----------2---2-------|
  |-2-------2---2---2---2---2---2-|-0-------0---0-------0-----------|
  |-3-----------------------3-----|-----------------------------0---|
  |-------------------------------|-------------------------------0-|
    ^     ^ ^   ^ ^ ^ ^ ^   ^   ^   ^     ^ ^           ^   ^
Bridge:(Do chorus chord pattern)

       Pilit man abutin ang mga tala, basta sakin wag kang mawawala

Chorus:(Added lyrics)

       Pagka't ikaw lang ang nais makatabi, malamig man o mainit ang gabi
       nais ko sana iparating na ikaw lamang ang siyang aking iibigin.

End part:Repeat the Outro


(slight variation before the outro)

E:|-----------------------|
B:|-----------------------|
G:|-----------------0-----|
D:|---------3/4-----------|
A:|---------4/5-----------|
E:|-----------------------|

h  =  hammer on
p  =  pull off
/  =  slide up
\  =  slide down
x  =  dead string
TAP=  tapping the string/strings
() =  natural harmonic
[] =  artificial harmonic
.  =  staccato effect
~~ =  vibratto effect
*  =  how it was played
^  =  strum
___=  Let ring (strike the 1st note and let it ring up to the 2nd note[without striking 
2nd note]).

      Feel free to comment at





Comments


Popular Shamrock tabs & chords
All I Need 1 Chords
I Wanna Be Chords
Ikaw Lang Chords
Magtiwala Ka Chords
Nandito Lang Ako 2 Chords
Sana Tabs
Alipin Ukulele
Hold On Ukulele
Ngiti Ukulele
Okey Lang Ukulele


Song lyrics



↑ Back to top | Tablatures and chords are parodies/interpretations of the original songs. You may use it for private study, scholarship, research or language learning purposes only
© 2014 AZChords.com Contact us | Privacy policy | DMCA | Add/correct tabs | Request tabs | Top 50 tabs