» » »

Shakira, Gypsy Tabs (ver.1)

Artists:  A B C D E F G H I J K L M N O P Q R S T U V W X Y Z # 

Gypsy Tabs (ver.1)

Shakira Tabs
Rating:
0/5 (0 votes)
Gypsy lessons Tabs too difficult? Try these video lessons and learn fast
                --------------------------------------------------------------------------
                       From the album She Wolf.
--------------------------------------------------------------------------
Tuning: half step down.

/ = slide up to.
h = hammer on


Verse 1 (repeats til 0:50)

eb|---2-----3-2---------0-----0-----------------|
Bb|-----3--------3/5--0---3-----3---3-----------|
Gb|-------2-----------------4-----4-------------|
Db|-----------------------------------5---------|
Ab|---------------------------------------------|
Eb|---------------------------------------------|


Chorus (0:51-1:17) (repeats twice)
       D           D           D               G
eb|----2-2-2-5-3-2-2-2-2-3-2---2-2-2-2-2-2-2-2-3-3-3-3---|
Bb|----3-3-3-------3-3-3-----3-3-3-3-3-3-3-3-3-3-3-3-3---|
Gb|----2-2-2-------2-2-2-------2-2-2-2-2-2-2-2-0-0-0-0---|
Db|----0-0-0-------0-0-0-------0-0-0-0-0-0-0-0-0-0-0-0---|
Ab|--------------------------------------------2-2-2-2---|
Eb|--------------------------------------------3-3-3-3---|

Bridge 1 (1:18-1:28) (repeats twice)

eb|-5-5-5-3-3-3-3-3-2-2-2-2-------------------------------|
Bb|-------------------------3-3-3-3---------3-------------|
Gb|---------------------------------2-2-2-2---------------|
Db|-------------------------------------------------------|
Ab|-------------------------------------------------------|
Eb|-------------------------------------------------------|


Verse 2 (1:29-1:28, repeats until then)

eb|---2-----3-2---------0-----0-----------------|
Bb|-----3--------3/5--0---3-----3---3-----------|
Gb|-------2-----------------4-----4-------------|
Db|-----------------------------------5---------|
Ab|---------------------------------------------|
Eb|---------------------------------------------|

Chorus (1:29-2:15) (repeats twice)
       D           D           D               G
eb|----2-2-2-5-3-2-2-2-2-3-2---2-2-2-2-2-2-2-2-3-3-3-3---|
Bb|----3-3-3-------3-3-3-----3-3-3-3-3-3-3-3-3-3-3-3-3---|
Gb|----2-2-2-------2-2-2-------2-2-2-2-2-2-2-2-0-0-0-0---|
Db|----0-0-0-------0-0-0-------0-0-0-0-0-0-0-0-0-0-0-0---|
Ab|--------------------------------------------2-2-2-2---|
Eb|--------------------------------------------3-3-3-3---|

Bridge 2 (2:16-2:38) (chords)
           D
And I say, hey you, you're no fool
G                                         D
If you say no, ain't it just the way life goes
D
People fear what they don't know
                   G
Come along for the ride, oh yeah
                         D
Come along for the ride, ooh


Chorus (2:38-3:02) (repeats)
       D           D           D               G
eb|----2-2-2-5-3-2-2-2-2-3-2---2-2-2-2-2-2-2-2-3-3-3-3---|
Bb|----3-3-3-------3-3-3-----3-3-3-3-3-3-3-3-3-3-3-3-3---|
Gb|----2-2-2-------2-2-2-------2-2-2-2-2-2-2-2-0-0-0-0---|
Db|----0-0-0-------0-0-0-------0-0-0-0-0-0-0-0-0-0-0-0---|
Ab|--------------------------------------------2-2-2-2---|
Eb|--------------------------------------------3-3-3-3---|

Ending (3:02-end) (repeats)

eb|------------------------------------------------------|
Bb|-2h3-3-2h3-3-3-2h3-3-2h3-3-3--------------------------|
Gb|------------------------------------------------------|
Db|------------------------------------------------------|
Ab|------------------------------------------------------|
Eb|------------------------------------------------------|
            

comments powered by Disqus
↑ Back to top | Shakira Tabs for Gypsy. Lyrics for acoustic guitar and electric guitar. Tablatures and chords are parodies/interpretations of the original songs. You may use it for private study, scholarship, research or language learning purposes only