» » »

Fbi Tabs (ver.1)

Artists:  A B C D E F G H I J K L M N O P Q R S T U V W X Y Z # 

Fbi Tabs (ver.1)

Shadows
Rating:
0/5 (0 votes)

Hard to play? Try these video lessons and learn fast.
                Play verse twice, the bridge, verse down an octave, solo, bridge again, 
verse down an octave again, and fade.

Verse

----------------------------------|-----5--------------------|----------------
----------------------------------|-------8-5-------5-5------|----------------
---5-7/9----7-5-----5-7/9----7-5--|---5-------7-5-7-----7-5--|----------------
-7--------7-----7-7--------7-----7|-7-----------------------7|----------------
----------------------------------|--------------------------|----------------
----------------------------------|--------------------------|----------------


----------------------------------|------|------------------------------------
-------5-------5-------5----------|------|------------------------------------
---5-7---7-5-7---7-5-7---7-5-7-5--|------|------------------------------------
-7-------------------------------7|---5-7|------------------------------------
----------------------------------|-7----|------------------------------------
----------------------------------|------|------------------------------------

Bridge
--------------|------------------|-----------------|----------|-----------|---
--------------|------------------|-----------------|----------|-----------|---
--------------|------------------|-----------------|----------|-----------|---
-----6-6-6-9-6|------------------|-----7-7-10-7----|-----6-9-6|-----------|---
-7-7----------|-------7-10-10-7--|-8-8----------8-8|-7-7------|-----7-10-7|---
--------------|-8-8-8-----------8|-----------------|----------|-8-8-------|---


----------------|--------------|--------|--------------|----------|-----------
----------------|--------------|--------|--------------|----------|-----------
----------------|--------------|--------|--------------|----------|-----------
-----7---10-10-7|--------------|-6------|--------------|-6--------|-----------
-8-8---8--------|-----6-6-9-9-6|-7-5-6-7|-------6-9-9-6|-7-5-3-2-0|-----------
----------------|-7-7----------|--------|-7-7-7--------|----------|-----------

verse down an octave
----------------------------|-------------------------------------------------
----------------------------|-------------------------------------------------
----------------------------|-----2-0-----------------------------------------
-----2---0---------2---0----|---------2-0---0-2-2-0---------0-2-0---0-2-0-----
-0-3---0---3-0-0-3---0---3-0|-0-3---------3---------3-0-0-3-------3-------3---
----------------------------|-------------------------------------------------


------------------|-------|---------------------------------------------------
------------------|-------|---------------------------------------------------
------------------|-------|---------------------------------------------------
-0-2-0---0-2-0----|-------|---------------------------------------------------
-------3-------3-0|------0|---------------------------------------------------
------------------|-0-3b--|---------------------------------------------------





solo
-12-----12----12------|-12-----12------------|-----12------------|-12--12-----
----15b----------15-13|----15b-------13-15-13|-15b-------13-15-13|-15b--------
-----------14---------|-----------14---------|--------14---------|------------
----------------------|----------------------|-------------------|------------
----------------------|----------------------|-------------------|------------
----------------------|----------------------|-------------------|------------


-----12-----12|--------12-----12-------------------------------12|------------
-15b----15b---|-15-15b----15b----13----------------13----------13|------------
--------------|---------------------14-12----12-14----14-12-14-14|------------
--------------|---------------------------14---------------------|------------
--------------|--------------------------------------------------|------------
--------------|--------------------------------------------------|------------


-----12-----12-----12-----12-----12-----12-----12-----12-----12-----12--------
-15b----15b----15b----15b----15b----15b----15b----15b----15b----15b----15b----


-12|----------12----12----12|-------------------------------------------------
---|-15-13----13----13----13|-------------------------------------------------
---|-------14----14----14---|-------------------------------------------------
---|------------------------|-------------------------------------------------
---|------------------------|-------------------------------------------------
---|------------------------|-------------------------------------------------





bridge (with changes)
--------------|--------------------|------------------|----------|------------
--------------|--------------------|------------------|----------|------------
--------------|--------------------|------------------|----------|------------
-----6-6-9-9-6|--------------------|-----7-7-10-10-7-7|-6---4-5-6|------------
-7-7----------|-------7-7-10-10-7--|-8-8--------------|-7-7-5-6-7|------------
--------------|-8-8-8-------------8|------------------|----------|------------


---------------|----------------------------|----------|--------------|-------
---------------|----------------------------|----------|--------------|-------
---------------|----------------------------|----------|--------------|-------
---------------|----------------------------|----------|-6---4-5-6----|-------
---7-10-10-10-7|-/8-8-8-/8-8-8-/8-8-8-/8-8-8|---6-9-6--|-7-7-5-6-7-7-7|-------
-8-------------|----------------------------|-7-------7|--------------|-------


--------------|------------|--------------|--------------|--------------------
--------------|------------|--------------|--------------|--------------------
-----------8--|------------|--------------|--------------|--------------------
-------------9|-6-4-5-6----|-----2---0----|-----2---0----|--------------------
-----6-6-6----|-7-5-6-7-7-7|-0-3---0---3-0|-0-3---0---3-0|--------------------
-7-7----------|------------|--------------|--------------|--------------------

verse (down an octave)
--------------------------|---------------------------------------------------
--------------------------|---------------------------------------------------
-----2-0------------------|---------------------------------------------------
---------2-0---0-2-2-0----|-----0-2-0-------0-2-0---------------2--------2----
-0-3---------3---------3-0|-0-3-------3-0-3-------3-0----0----0--------0----0-
--------------------------|---------------------------3b---3b-----0-3b----3b--
            
Hard to play? Try these video lessons and learn fast. | Correct




comments powered by Disqus
↑ Back to top | Tablatures and chords are parodies/interpretations of the original songs. You may use it for private study, scholarship, research or language learning purposes only