» » »

Shack, Time Machine Tabs (ver.1)

Artists:  A B C D E F G H I J K L M N O P Q R S T U V W X Y Z # 

Time Machine Tabs (ver.1)

Shack Tabs
Rating:
0/5 (0 votes)
Time Machine lessons Tabs too difficult? Try these video lessons and learn fast
                Artist-Shack
Song-Time Machine
Album-Waterpistol
Writer-Mick Head

Intro
E       A      B    E     A      B                 F#m            A   B
--------------------------9----------------------------------------------|
--12-12-10 9--------12-12--12-10-12------------------------9-----9-10-12-|
-------------9-11--9---------------------9h11------11-11-11-11-11--------|
----------------------------------- 9h11------9h11-----------------------|
-------------------------------------------------------------------------|
-------------------------------------------------------------------------|

Verse 1
E
Tell us another a nastier week
A
pass us a drink it's a quarter to 8
E                                     B
what's on the wind and here comes the sun
F#m
and if you really want to talk about it
B
you can take me there
F#m                                  B
'Cause I'm all ears and whiskey tonight


Chorus
                  E    A
But first you can stop
E          A                  E    A
Sticking a stake through your heart
E       A               E
Gets to one then you've started
     A          E          A            E     A    G
Your old reason why you're falling apart
     G            A           E
Your time machine needs a new heart

B-A-C#


Verse
Just let's go back to the bit where it hurt
I was fetching a drink
And I should have been there
And where are we now and what's it to be
Oh, I'm falling


Chorus
But first you can stop
Sticking a stake through your heart
Gets to one then you've started
Your old reason why you're falling apart
Your time machine needs a new heart


Bridge
A             Dsus2  A                Dsus2
Love all your senses back against the fence
A             Dsus2  A                  Dsus2
Love all your senses before they're too many
A               Dsus2
Your eyes breed contentment
A               Dsus2
Arms are closed in
Bm                  E
Now it's my turn to state
Bm                       E
And you're back in late '88


Solo
-----------------------------------------------------|
-----------------------------------------------------|
-----------------------------------------------------|
-7p5 7p5 7p5 7p5-7p5 7p5 7p 7p5 7p5 7p5 7p5 a lot of times...you'll get it
-------------------------------------------------------|
-------------------------------------------------------|


------------------------------------------------------|
-------7h8--8-8---10 10 10----------------------------|
-9 9-9----------9-------------------------------------|
------------------------------------------------------|
------------------------------------------------------|
------------------------------------------------------|

                  A    D
But first you can stop
G         D                  A    D
Sticking a stake through your heart
G       D               A
Gets to one then you've started
     D          G          D       A     D    C
Your old reason why you're falling apart
     C            D           A
Your time machine needs a new heart

Outro
A-D-G-D
            
Submit corrections

comments powered by Disqus
↑ Back to top | Shack Tabs for Time Machine. Lyrics for acoustic guitar and electric guitar. Tablatures and chords are parodies/interpretations of the original songs. You may use it for private study, scholarship, research or language learning purposes only