» » »

Cup Of Tea Tabs (ver.1)

Artists:  A B C D E F G H I J K L M N O P Q R S T U V W X Y Z # 

Cup Of Tea Tabs (ver.1)

Shack
Rating:
0/5 (0 votes)

Hard to play? Try these video lessons and learn fast.
                Artist-Shack
Song-Cup of Tea
Album-On the Corner of Miles and Gil
Writer-Mick Head

A nice, trippy pop song by the brothers Head

Intro

D-Cadd9 (2x)

Opening guitar part after acoustic intro (over intro chords)

----------------------------------------------------------------|
----------10-10-12-12s13s12-10----10----------------10-10-12----|
-11-11-12----------------------12----12-11--11-11-12---------11-|
----------------------------------------------------------------|
----------------------------------------------------------------|
----------------------------------------------------------------|

----------------------------------------------------------------|
----------------------------------------------------------------|
-9--------------------------------------------------------------|
---10-10s12-10p9------------------------------------------------|
-----------------12p10------------------------------------------|
-----------------------10---------------------------------------|


Verse 1
D         Cadd9    D          Cadd9
I see the chimneys dancing in front of me
D       Cadd9      D        Cadd9
All the buildings different shapes in front of me
D        Cadd9    D           Cadd9
you went away illogic came to stay
D         Cadd9       D                   Cadd9
My cup of tea doesn't taste the same when she's with me

Verse 2
The girl outside she's all biking back in front of me
Has beautiful baskets full of frogs y'see
you went away illogic came to stay
my cup of tea doesn't taste the same when she's with me

Pre-Chorus
Em                   A
If you have a reason write it on a postcard
D                         G         G/F#
Stick it in a box but you deliver me
Em                                  A
it's not that I don't trust it it's just a cup of tea
D                                       G   G/F#
I think she smashed around I think it's LSD

Em-A-D
Em-A-G

Chorus
 D        G        Bm       A        D etc         Am    D
-15p14----15p14----15p14--15p14----15p14---------|
-------15-------15------15------15------15-------|
-------------------------------------------------|
-------------------------------------------------|
-------------------------------------------------|
-------------------------------------------------|
La LA La LA


I heard the milky whistling across the street
See the posty dancing in front of me
you went away illogic came to stay
My cup of tea doesn't taste the same when she's with me

If you have a reason write it on a postcard
Stick it in a box but you deliver me
it's not that I don't trust it it's just a cup of tea
I think she smashed around I think it's LSD
            
Hard to play? Try these video lessons and learn fast. | Correct




comments powered by Disqus
↑ Back to top | Tablatures and chords are parodies/interpretations of the original songs. You may use it for private study, scholarship, research or language learning purposes only