» » »

Comedy Tabs (ver.1)

Artists:  A B C D E F G H I J K L M N O P Q R S T U V W X Y Z # 

Comedy Tabs (ver.1)

Shack
Rating:
0/5 (0 votes)

Hard to play? Try these video lessons and learn fast.
                Artist-Shack
Song-Comedy
Album-HMS Fable
Writer-Mick Head

Intro


G                                             D
------------------------------------------------------|
--3--3---3--5--3--5---5/8--8--10--8--10--12--8/10--3--|
------------------------------------------------------|
--0--0---0--2--0--2---2/5--5---7--5---7--9---5/7---0--|
------------------------------------------------------|
------------------------------------------------------|

                  Am           C             G
--------------------------------------------------------|
-/12--12--12--10---8--8---8/10-5-5/8--7--7--7/8--8------|
--------------------------------------------------------|
-/9----9---9---7---5--5---5/7--2-2/5--4--4--4/5--5------|
--------------------------------------------------------|
--------------------------------------------------------|


Verse 1
G
Oh the awful title belies the quality
D               Am
of this unusual comedy
C                 G         (C)  G
it's the same for you and me


Verse 2

And the days and nights you remembered be
D                          
the walls I've never seen
Am          C            G
come to me, its an awful tragedy


Pre-chorus
Am                       C            G
fifteen million reasons loving in the seasons
Am                      C             G
fifteen million lovers sitting at the doubles
Am                      C             Em
fifteen million reasons loving in the seasons


Chorus
D                        Am        C        G
When you cry it pulls me through



Verse 3

And you know the times we'd cross the street
D                            
We'd rather laugh than greet
Am       C                     G    (C)   G
Honestly it's the forgone comedy


Verse 4

You know the walks we tried and made
D                       
Y'know it's never changed
Am       C                  G
honestly it's the long lost comedy


Pre-Chorus
Am                      C              G
fifteen million reasons loving in the seasons
Am                    C               G
fifteen million lovers sitting at the doubles
Am                      C             Em
fifteen million reasons loving in the seasons


Chorus
D                                    Am        C
When you cry it pulls me through

Solo
G                Am          Em                     C
---------------------------------------------------------------|
-3--3--1--0--1--3--3--1--0--0h1p0--0--0--1--0--1--1--1--0--1---|
---------------------------------------------------------------|
---------------------------------------------------------------|
---------------------------------------------------------------|
---------------------------------------------------------------|
G               Am            Em               C  C/b G
---------------------------------------------------------------|
-3--3--1--0--1--3--3--1--0--0h1p0--0--0--1--0--1--0------------|
------------------------------- ----------------------0--------|
---------------------------------------------------------------|
---------------------------------------------------------------|
---------------------------------------------------------------|

Am           C            G    Am         C            G
---------------------------------------------------------------|
-12-12-10-8--12-12-10-8-7-8---12-12-10-8--15-15-10-8-7-8-------|
-12-12-11-9--12-12-11-9-7-7---12-12-11-9--16-16-11-9-7-7-------|
---------------------------------------------------------------|
---------------------------------------------------------------|
---------------------------------------------------------------|


Verse
Oh the awful title belies the quality
of this unusual comedy
it's the same for you and me


Verse
and the days and nights you remembered be
the walls I've never seen
come to me, its an awful tragedy


Prechorus
fifteen million reasons loving in the season
fifteen million lovers sitting at the doubles
fifteen million reasons loving in the seasons


Chorus
When you cry it pulls me through



Solo

--------------------------------------------------------------|
-3--3--1--0--1--3--3--1--0--0h1p0--0--0--1--0--1--1--1--0--1--|
--------------------------------------------------------------|
--------------------------------------------------------------|
--------------------------------------------------------------|
--------------------------------------------------------------|

--------------------------------------------------------------|
-3--3--1--0--1--3--3--1--0--0h1p0--0--0--1--0--1/3/5/7/8------|
--------------------------------------------------------------|
--------------------------------------------------------------|
--------------------------------------------------------------|
--------------------------------------------------------------|

--------------------------------------------------------------|
-8-8-8-8/10-10------------------------------------------------|
---------------------9-9-9-11-11/12-12-12---------------------|
--------------------------------------------------------------|
--------------------------------------------------------------|
--------------------------------------------------------------|


---------------------------------------------------------------------------|
15-15-15-15-15-13-12--12-12-12-12h13-13--------------------12-12p10-13-12--|
----------------------------------------------11-11/12-12------------------|
----------------------------------------14-14------------------------------|
---------------------------------------------------------------------------|
---------------------------------------------------------------------------|


G                Am          Em                     C
-------------------------------------------------------------|
-3--3--1--0--1--3--3--1--0--0h1p0--0--0--1--0--1--1--1--0--1-|
-------------------------------------------------------------|
-------------------------------------------------------------|
-------------------------------------------------------------|
-------------------------------------------------------------|

G               Am            Em                  C  C/b G
-------------------------------------------------------------|
-3--3--1--0--1--3--3--1--0--0h1p0--0--0--1--0--1--0----------|
-----------------------------------------------------0-------|
-------------------------------------------------------------|
-------------------------------------------------------------|
-------------------------------------------------------------|
            
Hard to play? Try these video lessons and learn fast. | Correct




comments powered by Disqus
↑ Back to top | Tablatures and chords are parodies/interpretations of the original songs. You may use it for private study, scholarship, research or language learning purposes only