» » »

Butterfly Tabs (ver.1)

Artists:  A B C D E F G H I J K L M N O P Q R S T U V W X Y Z # 

Butterfly Tabs (ver.1)

Shack
Rating:
0/5 (0 votes)

Hard to play? Try these video lessons and learn fast.
                Artist-Shack
Song-Butterfly
Album-On the Corner of Miles and Gil
Writer-John Head

This is a fantastic song written by the other Head brother in Shack, John.
I must admit that I guessed on the lyrics...I gave it my best shot.  Those Scouse accents...

Intro

-----------------------------------------------------------------------|
-----2---3---5---3----2---3---5---3----5---7---8---7----5---7---8---7--|
-----------------------------------------------------------------------|
-----2---4---5---4----2---4---5---4----5---7---9---7----5---7---9---7--|
---0---0---0---0----0---0---0---0----0---0---0---0----0---0---0---0----|
-----------------------------------------------------------------------|

Guitars kick in

A-Asus4 (8x)


Verse 1
A     Asus4  A    Asus4
Butterfly    come
       A      Asus4   A   Asus4
Found a normal
  A      Asus4   A
A mortal lives
Asus4  A   Asus4    A    Asus4
an    opponent

A         Asus4
Slips and slides
A        Asus4
panic to fight
A      Asus4   A     Asus4    A   Asus4
that feeds his dream
     A       Asus4
that all the year
A   Asus4                  G    D
may and the world believes


Chorus
D                Em     A    Asus4   A  Asus4
We're all fallin in the sea


Verse 2
A      Asus4  A    Asus4
Drifts will   sigh
         A      Asus4    A     Asus4
will the moment
     A       Asus4
with all for one
A       Asus4    A   Asus4
one for all
   A        Asus4
be safe and sound
A          Asus4
warmth by the pound
   A          Asus4    A     Asus4
of flesh they drew
     A      Asus4
A          Asus4   A     G    D


Chorus
D                 Em     A   Asus4   A    Asus4
We're all falling in the sea
    G          D       Em
the clouds are rising yea
                A     Asus4    A    Asus4
they're sitting pretty
      G   D      Em
we're all going down


Solo

A-Asus4 (2x) alone, then solo over verse chords


-----------------------------------------------------|
-----------------------------------------------------|
-----------------------------------------------------|
-12h14-14-12-11-12-11-11-9-7-9-7-7-5-4-5-4h5-5-4-2-2-|
-----------------------------------------------------|
-----------------------------------------------------|

----------------------------------------------------|
----14----14--12--10--12-----10---10--8--7--7-------|
----------------------------------------------------|
-/14---14-----12--11--12--/11---11----9--7--7-------|
----------------------------------------------------|
----------------------------------------------------|

----------------------------------------------------|
----8---8---7---7---5---3---2-----------------------|
----------------------------------------------------|
-/9---9---7---7---5---4---2-------------------------|
----------------------------------------------------|
----------------------------------------------------|


Chorus
D                Em     A    Asus4   A    Asus4
We're all fallin in the sea
    G          E       Em
the clouds are rising yea
        A     Asus4    A     Asus4
sitting pretty
      G   D     Em
We're all going down

Outro
                              Em-A           Em-A
----------------------------------------------------------|
-----2--3--5--3---2--3--5--3----5--7--8--7----5--7--8--7--|
----------------------------------------------------------|
-----2--4--5--4---2--4--5--4----5--7--9--7----5--7--9--7--|
--(0)-----------(0)----------(0)-----------(0)------------|
----------------------------------------------------------|

A-Asus4 and fade end on D
            
Hard to play? Try these video lessons and learn fast. | Correct




comments powered by Disqus
↑ Back to top | Tablatures and chords are parodies/interpretations of the original songs. You may use it for private study, scholarship, research or language learning purposes only