» » »

Submission Bass tabs (ver.2)

Artists:  A B C D E F G H I J K L M N O P Q R S T U V W X Y Z # 

Submission Bass tabs (ver.2)

Sex Pistols
Rating:
0/5 (0 votes)

Hard to play? Try these video lessons and learn fast.
                (2)
*=x8 
#=x16 

Intro
G-----------
D-----------
A-8-------6-
E-----------

Riff 1
G--------------------------------
D--------------------------------
A---------------------6-5--------
E-8-8-6-6-8-8-6-6-8-8------5-6-7-

Riff 2     x4
G-------|-------|-------
D-------|-------|-------
A-5*-7*-|-------|-5*-7*-
E-------|-5-7-7-|-------

Riff 3
G------------------
D------------------
A-7#----7*---------
E----7#----7-7-7-7-

Riff 4
G---------------------------------
D---------------------------------
A-----------------6-6-6-6-5-5-5-5-
E-8-8-8-8-6-6-6-6-----------------

Riff 5
G-----------------
D-----------------
A-5-5-5-5-3-3-3-3-
E-----------------

And the order is : 
Intro
Riff 1x8
Riff 2x1
Riff 1x6
Riff 2x1
Riff 1x2
Riff 3x1
Riff 1x2
Riff 4x4
Riff 2x1
Riff 1x2
Riff 3x1
Riff 1x6
Riff 2x1
Riff 5 until end
            
Hard to play? Try these video lessons and learn fast. | Correct




comments powered by Disqus
↑ Back to top | Tablatures and chords are parodies/interpretations of the original songs. You may use it for private study, scholarship, research or language learning purposes only