» » »

Sex Pistols, Submission Tabs (ver.2)

Artists:  A B C D E F G H I J K L M N O P Q R S T U V W X Y Z # 

Submission Tabs (ver.2)

Sex Pistols Tabs
 Rating:
4/5 (4 votes)
Submission lessons Tabs too difficult? Try these video lessons and learn fast
1
                
    THIS TAB IS PERFECT
 
INTRO:.
intro
e--------
b--------
g--------
d-5---3--
a-3---1--
e--------

verse
e---------------------
b---------------------
g---------------------
d--5-5--3-3--8-8-5-5--
a--3-3--1-1--6-6-3-3--
e---------------------

chorus
e---------------------------------------------------------------------------------
b-----------------------------------------------5-3-------------------------------
g----------------------------------3^-3^-3-3-3 -----5-3---------------------------
d-5-5-5-5-5-5---6----6-6-6-6-6-6------------------------5-5-5-5-5-5--6-6-6-6-6-6--
a-3-3-3-3-3-3---6----6-6-6-6-6-6------------------------3-3-3-3-3-3--6-6-6-6-6-6--
e---------------------------------------------------------------------------------

do this when johnny is like making sunds with his mouth
e--------------------------------------
b--------------------------------------
g--------------------------------------
d-----5-5------3-3------8-8------5-5---
a-3-3-3-3--1-1-1-1--6-6-6-6--3-3-3-3---
e--------------------------------------
            
Submit corrections

comments powered by Disqus
↑ Back to top | Sex Pistols Tabs for Submission. Lyrics for acoustic guitar and electric guitar. 1 Tablatures and chords are parodies/interpretations of the original songs. You may use it for private study, scholarship, research or language learning purposes only