» » »

Sex Pistols, Holida In The Sun Bass tabs (ver.1)

Artists:  A B C D E F G H I J K L M N O P Q R S T U V W X Y Z # 

Holida In The Sun Bass tabs (ver.1)

Sex Pistols Tabs
Rating:
0/5 (0 votes)
Holida In The Sun lessons Tabs too difficult? Try these video lessons and learn fast
                Bassist: Sid Vicious…I think
Tuning: Standard EADG

Intro

G----------------------------------------
D---------------------------------------
A—5~------5~------5~-------5~--------
E--------------------------------------

Riff A (repeat)

G------------------------------------------------
D---------------------------------------*------- 
A--3-3-2-2------------------------------*-----------
E------------5-5-3-3--3-5--------------------------
Let the E-5 ring on the last time

Verse

G-----------------------------------------
D--------------------------------------------
A-------------2h3p2----------------------
E-333333333-------------------------------
Chorus 

G----------------------------------------
D----------------------------------------
A—2/3-3-3-2/3-3-3--------------------------  (x 2)
E----------------------------------------

G---------------------------------------
D-----------------------------------------
A—4/5-5-5-4/5-5-5--------------------------    (x2)
E------------------------------------------

Brigde

G--------------------------------------------------------------------------------------------------
D--------------------------------------------------------------------------------------------------
A-7-7-7-7-7-7-7-7----------------------------------------------------------------------------------
E----------------------3-3-3-3-3-3-3-3-4/5-5-5-4/5-5-5-4/5-5-5-4/-5-5-5—-----------------------
Solo = just play the chorus

Outro = Riff A

Hey all, I dont think this tab is perfect and i will improve it if i can but it is such a good song 
so i had to give it my best shot. tell me what you think
            

comments powered by Disqus
↑ Back to top | Sex Pistols Bass for Holida In The Sun. Lyrics for acoustic guitar and electric guitar. Tablatures and chords are parodies/interpretations of the original songs. You may use it for private study, scholarship, research or language learning purposes only