>
 >
Anarchy In The Uk With

Anarchy In The Uk With Guitar Tabs

Sex Pistols - Anarchy In The Uk With chords, tabs, tablatures, lyrics

Guitar lessons | Add/correct | Request | Top 50 tabs Artists:  A B C D E F G H I J K L M N O P Q R S T U V W X Y Z 0-9

Anarchy In The Uk With Guitar Tabs – Sex Pistols

CD, Sheet music, Poster

Do you like Anarchy In The Uk With? Share with your friends now
Tabs
Sex Pistols 
Anarchy in the UK
the solo is from a different earlier post
as for the rhythm here you go




Start out with the low G .. low F... Low E... D5... C5(a little more meaty sound)
e------------------------------------------------------------------|
B------------------------------------------------------------------|
G---------------7---5----------------------------------------------|
D---5---3---2---7---5------Strum 8X--each chord--------------------|
A---5---3---2---5---3------Last 3 chords are 1/2 time (4 i think)--|
E---3---1---0------------------------------------------------------|

  fig 1
e-----------------------------------------------|
B-----------------------------------------------|
G-----5-5---5-5-5---5-5-5---5-5-5---5--10--9----|
D-----5-5---5-5-5---5-5-5---5-5-5---5--10--9----|
A-----3-3-0-3-3-3-0-3-3-3-0-3-3-3-0-3--8---7----|
E-----------------------------------------------|

  fig 2	Cause i wanna be 
e--------------------------------
B---(  8 x each )-( 4 x each )---
G----12---10---9---7---5---------
D----12---10---9---7---5----this c goes into fig 1----
A----10----8---7---5---3-------
E-----------------------------

 fig 1   anarchy
e-----------------------------------------------|
B-----------------------------------------------|
G-----5-5---5-5-5---5-5-5---5-5-5---5--10--9----|
D-----5-5---5-5-5---5-5-5---5-5-5---5--10--9----|
A-----3-3-0-3-3-3-0-3-3-3-0-3-3-3-0-3--8---7----|
E-----------------------------------------------|

e---------------------------------------------------|
B---------------------------------------------------|
G-----5-5---5-5-5---5-5-5---5-5-5---5---------------|
D-----5-5---5-5-5---5-5-5---5-5-5---5----5-5-5-5----|
A-----3-3-0-3-3-3-0-3-3-3-0-3-3-3-0-3----5-5-5-5----|
E----------------------------------------3-3-3-3----|
repeat this whole upper segment 2 times 2 time no G
then the solo:
The guitar solo goes like this:

E|-----12-----------------|-----14-------------------|
B|-/13----13----------13/-|-/15----15------15----11/-|
G|-----------14~------14/-|-/16-------16~--16-16-12/-|
D|------------------------|--------------------------|
A|------------------------|--------------------------|
E|------------------------|--------------------------|


E|-----12-----------------|-----14-------------------|
B|-/13----13-------13-----|--------15------------11/-|
G|-/14-------14~---14-14/-|-/16-------16~--1610-12/-|
D|------------------------|--------------------------|
A|------------------------|--------------------------|
E|------------------------|--------------------------|


E|-----12-----------------|-----14-------------------|
B|-/13----13-------13-13/-|-/15----15------15---11/-|
G|-/14-------14~---14-14/-|-/16-------16~--16---12/-|
D|------------------------|--------------------------|
A|------------------------|--------------------------|
E|------------------------|--------------------------|


E|-----12--------------------|-----------------------|
B|-/13----13-------13-13----|----8-8~--/13----13-13-|
G|-/14-------14~---14-14----|----7-7~------14-14-14-|
D|------------------------7/-|-/9--------------------|
A|---------------------------|-----------------------|
E|---------------------------|-----------------------|


E|------------------------------|-----------------|------------------|
B|-13-15-15-15~-----------------|-----5-3-5-3-----|-/3-----5-5-5-5---|
G|-14-16-16-16~-(16)/19-19-0-4-|-5-7-5-4-5-4-0---|-/4-0---5-5-5-5---|
D|--------------------------0---|---------------0-|------0-----------|
A|------------------------------|-----------------|----------------0-|
E|------------------------------|-----------------|------------------|

repeat first verse and chorus
go to bridge

    DII            1,2,3  GIII F#m      4 D
E|--2--2---0-2---3-|---2---0-0h2-2-2-2--|---2---0-0-2-2-2-|
B|--3--3-3-3-3-3-3-|---3---3-3---3-3-3--|---3---3-3---3-3-|
G|:-2--2---2-2-2-2-|---2---2-2---2-2-2-:|---2---2-2---2-2-|
D|--0--0---0-0---0-|-0-0-0---0---0-0-0--|-0-0-0---0---0-0-|
A|-----------------|--------------------|-----------------|
E|-----------------|--------------------|-----------------|

repeat verse and chorus end on c let ring
any questions or comments 





Comments


Popular Sex Pistols tabs & chords
Anarchy In The U.K. 2 Bass Tabs
Bodies Bass Tabs
No Lip 2 Bass Tabs
Somethin Else Bass Tabs
My Way Chords
Anarchy In The Uk 4 Tabs
God Save The Queen 8 Tabs
Not Your Stepping Stone Tabs
No Lip Ukulele
Problems Ukulele


Song lyrics



↑ Back to top | Tablatures and chords are parodies/interpretations of the original songs. You may use it for private study, scholarship, research or language learning purposes only
© 2014 AZChords.com Contact us | Privacy policy | DMCA | Add/correct tabs | Request tabs | Top 50 tabs