» » »

Sewing With Nancie, Big Shot Bass tabs (ver.1)

Artists:  A B C D E F G H I J K L M N O P Q R S T U V W X Y Z # 

Big Shot Bass tabs (ver.1)

Sewing With Nancie Tabs
 Rating:
4/5 (4 votes)
Big Shot lessons Tabs too difficult? Try these video lessons and learn fast
                note : '>' means 8 times

Intro
G:---------------------------------------------------------------
D:-------------------------------11>>>-----------11>>>-----------
A:-22-4-55-4-0-------22-4-55-4-0------22-4-55-4-0-----22-4-5-----
E:---------------------------------------------------------------

Verses
G:---------|-----------------------------7-6---|---------------------------------
D:---------|-----------4-7-5-3-------0-7-----7-|---------4-7-5-3-------0-4-5-6-7-
A:-00------|-0-0-4-7-5---------0-2-4-----------|-0-4-7-5---------0-2-4-----------
E:----2-3-4|-----------------------------------|---------------------------------

G:---------------------------7-6---|---------------------------------
D:---------4-7-5-3-------0-7-----7-|---------4-7-5-3-------0-4-5-6-7-
A:-0-4-7-5---------0-2-4-----------|-0-4-7-5---------0-2-4-----------
E:---------------------------------|---------------------------------

1st Chorus
G:-----------------|X2|------
D:----------2>0>---|X2|------
A:-0>----0>>----0>-|X2|---5>-
E:---0>3>----------|X2|-3>---

Instrumental Part after the 1st chorus
G:-----------------------------------
D:-----------4-7-4-3-------0-4-5-6-7-
A:-0-0-4-7-5---------0-2-4-----------
E:-----------------------------------

2nd Chorus
G:-----------------|X2|----------|X3|-------------
D:----------2>0>---|X2|----------|X3|-------7>>>>-
A:-0>----0>>----0>-|X2|---5>0>---|X3|----5>>------
E:---0>3>----------|X2|-3>----2>-|X3|-3>>---------

Bridge
G:-------------------------6---6---6---6-------------
D:----0>>777-777-777-777-77--77--77--77-----0>>------
A:-2>>-----------------------------------2>>---------
E:---------------------------------------------0>>>>-

3rd Chorus
G:-----------------|X2|----------|X3|---------------
D:----------2>0>---|X2|----------|X3|---------------
A:-0>----0>>----0>-|X2|---5>0>---|X3|----5>>0~------
E:---0>3>----------|X2|-3>----2>-|X3|-3>>-----------

Outro
G:------------------------------------------------------------------
D:----------------------------------11>>>-----------11>>>-----------
A:-22-4-55-4-0---0/12---22-4-55-4-0------22-4-55-4-0-----22-4-5-----
E:------------------------------------------------------------------
            
Submit corrections

comments powered by Disqus
↑ Back to top | Sewing With Nancie Bass for Big Shot. Lyrics for acoustic guitar and electric guitar. Tablatures and chords are parodies/interpretations of the original songs. You may use it for private study, scholarship, research or language learning purposes only