» » »

Seven Year Kismet, Your Apocalypse Tabs (ver.1)

Artists:  A B C D E F G H I J K L M N O P Q R S T U V W X Y Z # 

Your Apocalypse Tabs (ver.1)

Seven Year Kismet Tabs
 Rating:
4/5 (4 votes)
Your Apocalypse lessons Tabs too difficult? Try these video lessons and learn fast
1
                



Music by: Luke Sohn, Shannon Wellby, Jack Price, Richard Kane & James Everson


Tuning - Drop B

PLEASE NOTE: This TAB is only one guitar as this is now how they play live and is 
a pedal giving the affect of 2 guitars.

----------------
Key
TP Tremolo Picking
+ Let Ring
Pb Pins & Bend
B Bend
- Palm Mute
h Hammer on
p Pull Off
/ Slide
----------------

Guitar 1 (0:01)
|------------------------------------------------------------------|
|------------------------------------------------------------------|
|------------------------------------------------------------------|
|----12h13----------12h13----------------12h13---------12h13-------|
|----------12h13----------12h13---------------12h13----------------|
|-00--------------00-------------12h13-00-----------00-------00----|
Pm--              --                   --           --       ------|

|------------------------------------------------------------------|
|------------------------------------------------------------------|
|------------------------------------------------------------------|
|-15p14----------12h13---------12h13--------------12h13------------|
|-------15p14---------12h13---------12h13--------------12h13-------|
|-------------00------------00-----------12h13-00------------00----|
Pm            --            --                 --            ------|

|-----------------------------------------18-17------|
|-----------------------------------17-16------------|
|----------------15h14--------16-15------------------|
|-12h13----15h14--------15-14------------------------|
|----------------------------------------------------|
|-------00-------------------------------------------|
Pm-     --

|---------------------------------------------------------------|
|---------------------------------------------------------------|
|---------------------------------------------------------------|
|---------------------------------------------------------------|
|------------------------4-3---------------------------3-2------|
|-0000-0-0000-0-0000-0-0-----4--0000-0-0000-0-0000-0-0-----3----|
Pm----   ----   ----   -        ----   ----   ----   -


|----------------------------------------------------|
|----------------------------------------------------|
|----------------------------------------------------|
|-----------------------5-4--------------------------|
|---------------------------5-----------4-3----------|
|0000-0-0000-0-0000-0-0-------0-3-6-0-3-----4--------|
Pm---   ----   ----  --------------------------------|       tptptptptptptptp

|------------------------------------------------------------|
|------------------------------------------------------------|
|------------------------------------------------------------|
|--5---4-------4---3-----------------------------------------|
|----------5-----------4-------------4---3-------3---2-------|
|----0---0---0---0---0---0-00000000----0---0-4-0---0---0-3-0-|
Pm   -   -   -   -   -   - --------    -   -   -   -   -   -

|--------------------------------------------------------------------|
|--------------------------------------------------------------------|
|--------------------------------------------------------------------|
|-----------5---4-------4---3----------------------------------------|
|-------------------5-----------4------------4---3-------3-----------|
|-11111111----0---0---0---0---0---0-00000000---0---0-4-0---0-1/3—1/4-|
Pm--------    -   -   -   -   -   - --------   -   -   -   -

|--------------------------------------------------------------------|
|--------------------------------------------------------------------|
|--------------------------------------------------------------------|
|--------------------------------------------------------------------|
|--------------------------------------------------------------------|
|-000-000-1/3-1/4-000-000-000-000-000-1/3-1/4-000-0-0-000-0-0-000-000|
Pm--- ---         --- --- --- --- ---         --- - - --- - - --- ---

|--------------------------------------------------------------------|
|--------------------------------------------------------------------|
|--------------------------------------------------------------------|
|-----------6--------------------------------------------------------|
|---------5-------------------------------5-6------------------------|
|-0-0-000-----0-0-000-0-0-000-000-0-0-000-----0-0-000-0-0-000-000-0-0|
Pm- - ---     - - --- - - --- --- - - ---     - - --- - - --- --- - -

                TAIL
|----------|------------------------------------|
|----------|------------------------------------|
|----------|------------------------------------|
|----------|------------------------------------|
|----------|------------------------------------|
|-000-3--1-|-0-3-1-0-4-3-0-6-4-0-4-3-0-4-3-1----|
Pm---

SOLO -
|-----20b--17-20-17h20p17-----17-------------------------------------|
|-17b---------------------20b----20b-15-17-15-12-15-17-15-18-15-17-15|
|-16b----------------------------------------------------------------|
|--------------------------------------------------------------------|
|--------------------------------------------------------------------|
|--------------------------------------------------------------------|
Pm-

|----------------|-18-17-16-15-------------17-16-15-14---------------|
|-18-15-17-15-18-|-------------18-17-16-15-------------17-16-15-14---|
|----------------|---------------------------------------------------|
|----------------|---------------------------------------------------|
|----------------|---------------------------------------------------|
|----------------|---------------------------------------------------|
Pm-

|-16-15-14-13----------------------------------------15h19p15------|
|-------------16-15-14-13--20----------------------17--------17----|
|-----------------------------2pb-4pb-5pb-7pb----16------------16--|
|---------------------------------------------/17----------------17|
|------------------------------------------------------------------|
|------------------------------------------------------------------|
Pm-

|---------------------------------------------20b----|
|--------16h20p16-------------17h21p17---------------|
|------18--------18---------19--------19-------------|
|----17------------17-----18------------18-----------|
|-/18----------------18/19----------------19---------|
|----------------------------------------------------|
Pm-

Breakdown
|----------------------------------------------------------------|
|----------------------------------------------------------------|
|----------------------------------------------------------------|
|-----------------------------------1----------------------------|
|-0--1------------0--1--------------1-----\12--0--1---------0--1-|
|-0--1--0-0-0-0---0--1--0-0-0-0--00---0-0-\12--0--1—0-0-0-0-0--1-|
Pm-     - - - -   -     - - - -  --   - -      -    - - - - -

|---------------------|------------------------------------------------|
|---------------------|------------------------------------------------|
|---------------------|------------------------------------------------|
|---------------------|-5h+-------5h-------5h-------5h-----------------|
|---------------------|------------------------------------------------|
|-0-0-0-0--0--5--4—1b-|-----00000----00000----00000----000000000000000-|
Pm- - - -  tp tp tp         -----    -----    -----    ---------------

|-------------------------------------------------|
|-------------------------------------------------|
|-------------------------------------------------|
|-5h-------5h-------------------------------------|
|-------------------------------------------------|
|----00000----444444444--111111111----------------|
Pm-  -----    ---------  -------------------------|
            
Submit corrections

comments powered by Disqus
↑ Back to top | Seven Year Kismet Tabs for Your Apocalypse. Lyrics for acoustic guitar and electric guitar. 1 Tablatures and chords are parodies/interpretations of the original songs. You may use it for private study, scholarship, research or language learning purposes only