» » »

Seven Year Kismet, Soundtrack To Destruction Tabs (ver.1)

Artists:  A B C D E F G H I J K L M N O P Q R S T U V W X Y Z # 

Soundtrack To Destruction Tabs (ver.1)

Seven Year Kismet Tabs
 Rating:
4/5 (4 votes)
Soundtrack To Destruction lessons Tabs too difficult? Try these video lessons and learn fast
                

       

Music by: Luke Sohn, Shannon Wellby, Jack Price, Richard Kane & James Everson


Tuning - Drop B

INTRO FOR THE ALBUM

----------------
Key
h Hammer on 
p Pull Off
----------------

Clean Guitar 1 (0:01)
|--------------------------------------------------------------------------|
|--------------------------------------------------------------------------|
|--------------------------------------------------------------------------|
|--------------------------------------------------------------------------|
|---8---8---8---8----7---7---7---7----10---10---10---10---10---10---8---8--|
|-0---0---0---0----0---0---0---0----8----8----8----8----8----8----7---7----|

Clean Guitar Harmony
|---------------------------------------------------------------------|
|---------------------------------------------------------------------|
|---------------------------------------------------------------------|
|---7---7---7---7---5---5---5---5----8---8---8---8---8---8----7---7---|
|---------------------------------------------------------------------|
|-0---0---0---0---0---0---0---0----8---8---8---8---8---8----7---7-----|

Lead Guitar                             Lead Guitar Harmony 
|-------------------------|------------------------------------|
|-------------------------|------------------------------------|
|-------------------------|------------------------------------|
|-------------------------|--3—5h7-5---7p5-7--8-5-3------------|
|--5—7h8-7--8p78--10-7-5--|------------------------------------|
|-------------------------|------------------------------------|
            
Submit corrections

comments powered by Disqus
↑ Back to top | Seven Year Kismet Tabs for Soundtrack To Destruction. Lyrics for acoustic guitar and electric guitar. Tablatures and chords are parodies/interpretations of the original songs. You may use it for private study, scholarship, research or language learning purposes only