» » »

Seven Year Kismet, Pestilence Tabs (ver.1)

Artists:  A B C D E F G H I J K L M N O P Q R S T U V W X Y Z # 

Pestilence Tabs (ver.1)

Seven Year Kismet Tabs
 Rating:
4/5 (4 votes)
Pestilence lessons Tabs too difficult? Try these video lessons and learn fast
1
                



Music by: Luke Sohn, Shannon Wellby, Jack Price, Joe Ward

Tuning - Drop B

PLEASE NOTE: This TAB is only one guitar as this is now how they play live and is 
a pedal giving the affect of 2 guitars.

----------------
Key
TP Tremolo Picking
+ Let Ring
- Palm Mute
h Hammer on
p Pull Off
/ Slide
----------------

Guitar 1 (0:01)
|----------------------------------------------------------|
|----------------------------------------------------------|
|----------------------------------------------------------|
|----------------------------------------------------------|
|---------5--------4----------5--------4-------------------|
|-0-6-5-6----6-5-6----0-6-5-6----6-5-6----0-4-3-1-0-1-3-4--|
Pm- - - -    - - -    - - - -    - - -    - - - - - - - -

|-------------------------------------------------------|
|-------------------------------------------------------|
|-------------------------------------------------------|
|-------------------------------------------------------|
|---------5-------4----------5-------4------------------|
|-0-6-5-6---6-5-6----0-6-5-6---6-5-6----11111--11111----|
Pm- - - -   - - -    - - - -   - - -    -----  -----

|-----------------------------------------------------------|
|-----------------------------------------------------------|
|-----------------------------------------------------------|
|-----------------------------------------------------------|
|---------5-------4---4---4---4------------5----------------|
|-0-6-5-6---6-5-6---5---5---5---5--0-6-5-6---6-5-6--0-1-3-4-|
Pm- - - -   - - -   -   -   -   -  - - - -   - - -

|------------------------------------------------------------|
|------------------------------------------------------------|
|------------------------------------------------------------|
|-3----------------------------------------------------------|
|-------------------5--------4---4---4---4------------3------|
|---4-3-1---0-6-5-6---6-5-6----5---5---5---5--0-1-3-4---4-1-3|
Pm-         - - - -   - - -    -   -   -   -

|-----------------|-----------------------------------------|
|-----------------|-----------------------------------------|
|-----------------|-----------------------------------------|
|-----------------|-----------------------------------------|
|---------6-------|---------5---------6-5-3---9-8-6---------|
|-0-4-6-7---7-6-4-|-0-6-5-6---6-5-6-0-------0-------0-6-5-6-|
Pm-                 - - - -   - - - -       -       - - - -
|-------------------------------------------------------------|
|-------------------------------------------------------------|
|-------------------------------------------------------------|
|-------------------------------------------------------------|
|-5----------6-5-3-------------------5---------6-5-3---9-8-6--|
|---6-5-6--0-------0-6-5-3--0--6-5-6---6-5-6-0-------0--------|
Pm- - - -  -                -  - - -   - - - -       -

|------------------------------------------|
|------------------------------------------|
|------------------------------------------|
|------------------------------------------|
|-------------------3----------------------|
|-00000000--0-1-3-4---4-3-1----------------|
Pm-----------------------------------------|

|------------------------------------------------------------|
|------------------------------------------------------------|
|------------------------------------------------------------|
|-6----------------6/7\6-------------------------------------|
|-6----------------6/7\6-------------------------------------|
|-6--0--0-00000-0--6/7\6--0-00000--0--6--0--0-00000-0—6/7\6--|
Pm-     - ----- -           -----  tp       - -----

|----------------------------------------------------|
|----------------------------------------------------|
|----------------------------------------------------|
|----------------------------------------------------|
|----------000----6----7----0----------1----2--------|
|-0--00000-111----6----7----0----00----1----2--------|
Pm-  -----                       --------------------|

|------------------------------------------------------------|
|------------------------------------------------------------|
|------------------------------------------------------------|
|------------------------------------------------------------|
|--------------------------1---------------------------------|
|--6-7b-0-00-1-2-6-7b-0-00-1--6-7-0-1-2--6-7-0--04310134-----|
Pm-                     --    tptptptptptptptp  -------------|

|--------------------------------------------------------------|
|--------------------------------------------------------------|
|--------------------------------------------------------------|
|--------------------------------------------------------------|
|---------------------------------------------12---------------|
|--12-13-00000000000000-12-13-000000-12-13-00----13-00-12-13---|
Pm-      --------------       ------       --       -----------|

|------------------------------------------------------------|
|------------------------------------------------------------|
|------------------------------------------------------------|
|------------------------------------------------------------|
|-------------------------12----------11----------10---------|
|-00-12-13-00000000000000----13-12-13----12-11-12----11-10-11|
Pm--       --------------    -  -  -     -  -  -     -  -  -

|-----------|------------|-------------------------|
|-----------|------------|-------------------------|
|-----------|------------|----BASS STARTS----------|
|-----------|--------0---|-------------------------|
|-9---------|--------0---|-------------------------|
|---10-9-10-|--12-13-0---|-------------------------|
Pm- -  - -

	X3				X3
|-----------------|------------|---------------------|
|-----------------|------------|---------------------|
|-----------------|------------|---------------------|
|-----------------|---------4--|-2-3-2-3-4-3-2-3-----|
|-----------------|---------4--|-x-x-x-x-x-x-x-x-----|
|-2-3-2-3-4-3-2-3-|-2-3-2-3-4--|-2-3-2-3-4-3-2-3-----|
Pm- - - - - - - -

				X3
|-----------------------|-----------------|---------------|
|-----------------------|-----------------|---------------|
|-----------------------|-----------------|---------------|
|-2-3-2-3--1-1-1--------|-2-3-2-3-4-3-2-3-|-2-3-2-3-------|
|-x-x-x-x--x-x-x--0-0-0-|-2-3-2-3-4-3-2-3-|-2-3-2-3-0-0-0-|
|-2-3-2-3--1-1-1--1-1-1-|-2-3-2-3-4-3-2-3-|-2-3-2-3-1-1-1-|
Pm-               - - -

	X3
|-----------------|-----------------|-------------|
|-----------------|-----------------|-------------|
|-----------------|-----------------|-------------|
|-----------------|-----------------|-------------|
|-----------------|---------0-0-0-0-|-0-0-0-0-----|
|-2-3-2-3-4-3-2-3-|-2-3-2-3-1-1-1-0-|-1-1-1-1-----|
Pm-                         - - - -   - - - -
            
Submit corrections

comments powered by Disqus
↑ Back to top | Seven Year Kismet Tabs for Pestilence. Lyrics for acoustic guitar and electric guitar. 1 Tablatures and chords are parodies/interpretations of the original songs. You may use it for private study, scholarship, research or language learning purposes only