» » »

Not Without Incident Tabs (ver.1)

Artists:  A B C D E F G H I J K L M N O P Q R S T U V W X Y Z # 

Not Without Incident Tabs (ver.1)

Seven Year Kismet
Rating:
0/5 (0 votes)

Hard to play? Try these video lessons and learn fast.
                



Music by: Luke Sohn, Shannon Wellby, Jack Price, Richard Kane & James Everson


Tuning - Drop B

PLEASE NOTE: This TAB is only one guitar as this is now how they play live and is 
a pedal giving the affect of 2 guitars.

----------------
Key
TP Tremolo Picking
+ Let Ring
- Palm Mute
/ Slide
----------------

Guitar 1 (0:01)
|------------||---------|--------------------------------------------------|
|------------||---------|--------------------------------------------------|
|------------||---------|--------------------------------------------------|
|--3---6---0-||--3---6--|--------------------------------------------------|
|--3---6---0-||--3---6--|----------------------------------------------- 1-|
|--3---6---0-||--3---6--|-00-00-00-00-0-00-0-00-00-00-00-00-00-0-00-0-00-1-|
           +              -- -- -- -- - -- - -- -- -- -- -- -- - -- - --
Riff – (Repeated at the end of the song)
|-----------------------|----------------------------------|
|-----------------------|----------------------------------|
|-----------------------|----------------------------------|
|-----------------------|----------------------------------|
|---------5---3---------|----3----3---------8--------------|
|-0000000---0---000-653-|-33---33---3--0689---989----------|
Pm------- - - - --- ---   --   --   -


|--------------------------|---------------------------------|
|--------------------------|---------------------------------|
|--------------------------|---------------------------------|
|--------------------------|-----------------3---6-----------|
|--------------------------|--------------0--3---6-----------|
|-000000000--0--0--0--0--0-|---000000000--0--3---6-----------|
Pm---------  -  -  -  -  -     ---------  -


|------------------------------------------------------------|
|------------------------------------------------------------|
|------------------------------------------------------------|
|------------------------------------------------------------|
|--3--6--5--2--3--6--5--9--10--9--7-9-7--6-7-6---------------|
|------------------------------------------------------------|

CHORUS

|------------------------|------------------------|------------------------|
|------------------------|------------------------|------------------------|
|------------------------|------------------------|------------------------|
|------------------------|------------------------|------------------------|
|------------------------|------------------------|------------------------|
|-000000000-5--0-0-0-0-0-|-000000000-7--0-0-0-0-0-|-000000000-8--0-0-0-0-0-|
Pm--------- /  - - - - -   --------- /  - - - - -   --------- /  - - - - -

|-----------------------------------------|
|-----------------------------------------|
|-----------------------------------------|
|-----------------------------------------|
|------------2-----33----------5----------|
|-222222222--2--2--33---0-2-3-------------|
Pm---------  -  -  --   - - -  tp


|--------------------------|----------------------------------|
|--------------------------|----------------------------------|
|--------------------------|----------------------------------|
|-------7------------7-----|--------8--------------8----------|
|-0-5-8---8-5--0-5-8---8-5-|-0-7-10---10-7--0-7-10---10-7-----|
|--------------------------|----------------------------------|

|-------------------------------|----------------------------------|
|-------------------------------|----------------------------------|
|-------------------------------|----------------------------------|
|--------10--------------10-----|--------8--------------8----------|
|-0-8-12----12-8--0-8-12---12-8-|-0-7-10---10-7--0-7-10---10-7-----|
|-------------------------------|----------------------------------|

Harmony Riff
|-------------------------------|-------------------------------------|
|-------------------------------|-------------------------------------|
|-------------------------------|-------------------------------------|
|--------10-------------10------|---------12---------------12---------|
|-0-8-12----12-8-0-8-12----12-8-|-0-10-14----14-10-0-10-14----14-10---|
|-------------------------------|-------------------------------------|

|-----------------------------------|-------------------------------------|
|-----------------------------------|-------------------------------------|
|-----------------------------------|-------------------------------------|
|---------14---------------14-------|---------12---------------12---------|
|-0-12-15----15-12-0-12-15----15-12-|-0-10-14----14-10-0-10-14----14-10---|
|-----------------------------------|-------------------------------------|

|---------|
|---------|
|---------|
|---------|
|-7----4--|
|---------|

|------------------------------------------------------------|
|------------------------------------------------------------|
|------------------------------------------------------------|
|------------------------------------------------------------|
|------------------------------------------8-----7-----------|
|-00-00-00-00--0-00--1--4--00-00-00-00--10----10----8--------|
                     Tp tp              tp tp tp tp tp
REPEAT EARLIER RIFF
            
Hard to play? Try these video lessons and learn fast. | Correct




comments powered by Disqus
↑ Back to top | Tablatures and chords are parodies/interpretations of the original songs. You may use it for private study, scholarship, research or language learning purposes only