» » »

Into The Arms Of Avarice Tabs (ver.1)

Artists:  A B C D E F G H I J K L M N O P Q R S T U V W X Y Z # 

Into The Arms Of Avarice Tabs (ver.1)

Seven Year Kismet
Rating:
0/5 (0 votes)

Hard to play? Try these video lessons and learn fast.
                



Music by: Luke Sohn, Shannon Wellby, Jack Price, Richard Kane & James Everson


Tuning - Drop B

PLEASE NOTE: This TAB is only one guitar as this is now how they play live and is 
a pedal giving the affect of 2 guitars.

----------------
Key
TP Tremolo Picking
+ Let Ring
- Palm Mute
h Hammer on
p Pull Off
H Harmonic
\ Slide
----------------

Guitar 1 (0:01)
|---------------------------------------------------------------|
|---------------------------------------------------------------|
|---------------------------------------------------------------|
|---------------------------------------------5h6---------------|
|-----6---5h6------6---5h6------------6-5h6---------5h6-----3h5-|
|-0-0---0------0-0---0------0-3-4-0-0-------0-----0-----3h5-----|
Pm- -   -      - -   -      - - - - -       -     -


|------------------------------------------------------------------------|
|------------------------------------------------------------------------|
|------------------------------------------------------------------------|
|---------------------------------------------------------3--1-----------|
|-----6---5h6-----6---5h6-------3----------------------------------------|
|-0-0---0-----0-0---0-----0-3-4---1h3-333-333-333-3h4-444-------3--1-----|
Pm- -   -     - -   -     - - -       --- --- ---     ---


|---------------------------------------------------------------|
|---------------------------------------------------------------|
|---------------------------------------------------------------|
|---------------------------------------------------------------|
|---------------------------------------------------------------|
|-0-3-6-3--0-6-9-6--0-3-6-3--0-1-4-1--0-3-6-3--0-6-9-6--0-3-6-3-|
  TPTPTPTP TPTPTPTP TPTPTPT  TPTPTPTP TPTPTPTP TPTPTPTP TPTPTPTP


|-------------|--------------------------------------------------|
|-------------|--------------------------------------------------|
|-------------|--------------------------------------------------|
|-1--1--1--1--|------6--0----------------------------------------|
|-1--1--1--1--|------6--0----------------------------------------|
|-1--1--1--1--|--0-0-6--0--0-0-000-000-000-000-------------------|
Pm-  -  -  -     - -       - - --- --- --- ---

|------------------------------------------------------------|
|------------------------------------------------------------|
|------------------------------------------------------------|
|--------------7-------------------7-------------------------|
|----------5-7---8----------7-8-10---------------------------|
|-000-000-----------555-555----------------------------------|
Pm--- ---  - -      --- --- - - -

|---------------------------------------------------------------|
|---------------------------------------------------------------|
|--7H-----------------------------------------------------------|
|---------------------------------------------------------------|
|---------------------------------------------------------------|
|------0000-12h13-00-10h12-0-12h13-0-12h13-0000-12h13-00-10h12--|
Pm     ----       --       -       -       ----       --

                                        Breakdown
|-----------------|---------|---------------------------------------|
|-----------------|---------|---------------------------------------|
|-----------------|---------|---------------------------------------|
|-----------------|---------|---------------------------------------|
|-----------------|---------|---------------------------------------|
|-0-12h13-0-13h15-|-000-000-|-000--000--000--000------000--000--000-|

|-----------------|
|-----------------|
|------10-\---6---|
|----------\------|
|------8----\-4---|
|-000-------------|

|---------------------------------------------------------------|
|---------------------------------------------------------------|
|---------------------------------------------------------------|
|-8-8--8-8--8--8--8-8-x-x--0--0--0-0--0--0--0-0-x-x-------------|
|-8-8--8-8--8--8--8-8-x-x--0--0--0-0--0--0--0-0-x-x-------------|
|-8-8--8-8--8--8--8-8-x-x--0--0--0-0--0--0--0-0-x-x-------------|
PM                -              -          -
            
Hard to play? Try these video lessons and learn fast. | Correct




comments powered by Disqus
↑ Back to top | Tablatures and chords are parodies/interpretations of the original songs. You may use it for private study, scholarship, research or language learning purposes only