» » »

Seven Year Kismet, Eradicate Adversity Tabs (ver.1)

Artists:  A B C D E F G H I J K L M N O P Q R S T U V W X Y Z # 

Eradicate Adversity Tabs (ver.1)

Seven Year Kismet Tabs
 Rating:
4/5 (4 votes)
Eradicate Adversity lessons Tabs too difficult? Try these video lessons and learn fast
1
                



Music by: Luke Sohn, Shannon Wellby, Jack Price, Richard Kane & James Everson


Tuning - Drop B

PLEASE NOTE: This TAB is only one guitar as this is now how they play live and is 
a pedal giving the affect of 2 guitars.

----------------
Key
TP Tremolo Picking
b Bend
- Palm Mute
* Pinch
h Hammer on
p Pull Off
----------------

	X2					X2
|--------------------------|--------------------------------------------|
|--------------------------|--------------------------------------------|
|--------------------------|--------------------------------------------|
|-0--7--6--1--0--7--1------|--------------------------------------------|
|-0--7--6--1--0--7--1------|-0000-7777-6666-1111--0000-7777-111-8888----|
|-0--7--6--1--0--7--1-8b---|--------------------------------------------|

|----------------------------------------------------------------------|
|----------------------------------------------------------------------|
|----------------------------------------------------------------------|
|-0--7--6--------------------------------------------------------------|
|-0--7--6--------------------------------------------------------------|
|-0--7--6--000-0-0-0-0-1p0-000-0-0-0-0-0h1-000-0-0-0-0-1p0-000-444-000-|
Pm         --- - - - -     --- - - - -     --- - - - -     --- --- ---

|---------------------------------------------------------------------|
|---------------------------------------------------------------------|
|---------------------------------------------------------------------|
|---------------------------------------------------------------------|
|---------------------------------------------------------------------|
|-333-000-0-0-0-0-1p0-000-0-0-0-0-0h1-000-0-0-0-0-1p0-3-4-333-1-3-111-|
Pm--- --- - - - -     --- - - - -     --- - - - -     - - --- - - ---

|------------------------------------------------------------------|
|------------------------------------------------------------------|
|------------------------------------------------------------------|
|------------------------------------------------------------------|
|---------------------------------------------3-4-3--1-3-1---------|
|-0-1p0-0-0h1-0-1p0-0-4-0-3-0-1p0-0-0h1-0-1p0-3-4-3--1-3-1---------|
  Tp    tp    tp    tptptptptp    tp    tp    - - -  - - -


		X2
|---------------------------------------------------------------|
|---------------------------------------------------------------|
|---------------------------------------------------------------|
|---------------------------------------------------------------|
|---------------------------5---4---3---------------------------|
|-000-0-0-1p0-000-0-0-0h1-0---8---7---6-000-0-0-1p0-000-00-0h1--|
Pm--- - -     --- - -     - tptptptptptp--- - -     --- --

		  Let Ring	Breakdown		X2 (Chorus)
|----------------|---------|--------------------------|-----------------|
|----------------|-----3---|--------------------------|-----------------|
|----------------|---0-----|--------------------------|-----------------|
|----------------|-1-------|--------------------------|-----------------|
|---5---4---8----|---------|-0--0-0-0--0-0-0-0-0-0--0-|----------4---3--|
|-0---8---7---11-|---------|-0--0-0-0--0-0-0-0-0-0--0-|-454-242-1--0----|
    Tptptptptptp             -  - - -  - - - - - -  -   tptptptptptptptp

	X2
|---------------------------|------------------------------------|
|---------------------------|------------------------------------|
|-----------------6b----5b--|------------------------------------|
|---------------------------|-0--XXX-----------------------------|
|-4--54--2--42--1-4b----3b--|-0--XXX-----------------------------|
|-4--54--2--42--1-----8-----|-0--XXX-----------------------------|

|--------------------------------------------------------------------|
|--------------------------------------------------------------------|
|--------------------------------------------------------------------|
|-0------------------------------------------------------------------|
|-0---------1---0------4-3-1-0--------1---0----4---3-----------------|
|-0--0-0-0--1-0-0--0-0-4-3-1-0--0-0-0-1-0-0--1---0-------------------|
Pm   - - -    -    - - - - -    - - -   -    tptptptp

|-------------0------------------------0-----------------------------|
|-------------0------------------------0-----------------------------|
|-------------3------------------------3-----------------------------|
|----------------------1---------------------------------------------|
|-0-0-0-3-0-0----0-1-5---5-0-0-0-3-0-0---0-1-------------------------|
|-0-0-0-3-0-0----0-1-------0-0-0-3-0-0---0-1-0-2*--------------------|
Pm- - -   - -    -         - - -   - -   -   -

|------------------|----------------------|---------------------------|
|------------------|----------------------|---------------------------|
|------------------|----------------------|--5------------------------|
|------------------|--BACK TO THE CHORUS--|------LET RING-------------|
|-1--3--1--4--3--1-|----------------------|--3------------------------|
|-1--3--1--4--3--1-|----------------------|---------------------------|
Pm-  -  -  -  -  -

	X4
|---------------------------------|--------------|--------------------|
|---------------------------------|--------------|--------------------|
|---------------------------------|--------------|--------------------|
|---------------------------------|--------------|-0------------------|
|---------------------------------|---1-0-----3--|-0---LET RING-------|
|-4-1-0-1-0-1-4-1-0-1-0-1-000-0-0-|-0-1-0--0--3--|-0------------------|
Pm- - - - - - - - - - - - --- - -   -      -


|---------------------------------------------------------------|
|---------------------------------------------------------------|
|---------------------------------------------------------------|
|---------------------------------------------------------------|
|---------------------------------------------------------------|
|-4-1-0-1-0-1-4-1-0-1-0-1--0-0-0-2*b----------------------------|
            
Submit corrections

comments powered by Disqus
↑ Back to top | Seven Year Kismet Tabs for Eradicate Adversity. Lyrics for acoustic guitar and electric guitar. 1 Tablatures and chords are parodies/interpretations of the original songs. You may use it for private study, scholarship, research or language learning purposes only