» » »

Bloodshed In The Halls Of Atrophy Tabs (ver.1)

Artists:  A B C D E F G H I J K L M N O P Q R S T U V W X Y Z # 

Bloodshed In The Halls Of Atrophy Tabs (ver.1)

Seven Year Kismet
Rating:
0/5 (0 votes)

Hard to play? Try these video lessons and learn fast.
                



Music by: Luke Sohn, Shannon Wellby, Jack Price, Richard Kane & James Everson


Tuning - Drop B

PLEASE NOTE: This TAB is only one guitar as this is now how they play live and is 
a pedal giving the affect of 2 guitars.

----------------
Key
TP Tremolo Picking
+ Let Ring
- Palm Mute
----------------

Guitar 1 (0:01)
|--------------------------------------------------|
|--------------------------------------------------|
|--------------------------------------------------|
|--------------------------------------------------|
|-1-3-2----1-3-2-1---1-3--1-3-2-1-3-2---5--4-------|
|-1-3-2----1-3-2-1---1-3--1-3-2-1-3-2---------5----|
Pm- - -    - - - -   - -  - - - - - -   tp tp tp

|--------------------------------------------------|
|--------------------------------------------------|
|--------------------------------------------------|
|--------------------------------------------------|
|-1-3-2----1-3-2-1---1-3--1-3-2-1-3-2---5--3-------|
|-1-3-2----1-3-2-1---1-3--1-3-2-1-3-2---------4----|
Pm- - -    - - - -   - -  - - - - - -   tp tp tp

|--------------------------------------------------|
|--------------------------------------------------|
|--------------------------------------------------|
|--------------------------------------------------|
|-1-3-2----1-3-2-1---1-3--1-3-2-1-3-2---5--4-------|
|-1-3-2----1-3-2-1---1-3--1-3-2-1-3-2---------5----|
Pm- - +    - - - +   - +  - - - - - +   tp tp tp

|--------------------------------------------------|
|--------------------------------------------------|
|--------------------------------------------------|
|--------------------------------------------------|
|-1-3-2----1-3-2-1---1-3--1-3-2-1-3-2---5--3-------|
|-1-3-2----1-3-2-1---1-3--1-3-2-1-3-2---------4----|
Pm- - +    - - - +   - +  - - - - - +   tp tp tp


|--------------------------------------------------------------------|
|--------------------------------------------------------------------|
|--------------------------------------------------------------------|
|------------------3-------------------------------------------------|
|-5----4------5---------4---5----4-----------------------------------|
|---00---0050---00---00---0---00---0050--000--333--444--111----------|

|--------------------------------------------------------------------|
|--------------------------------------------------------------------|
|--------------------------------------------------------------------|
|------------------3-------------------------------------------------|
|-5----4------5---------4---5----4---------4-------------------------|
|---00---0050---00---00---0---00---0050--0---1-0-1-3-----------------|

|-------------------------------|--------------------||--------------|
|-------------------------------|--------------------||--------------|
|-------------------------------|--------------------||--------------|
|----------------6--------------|--------------------||--------------|
|--8----7---8------7--8----7----|--------------------||---4----------|
|----00---8---00--------00---8--|-000--333--444--111-||-0---1-0-1----|

|----------------------------------------------------||-------------------|
|----------------------------------------------------||-------------------|
|----------------------------------------------------||-------------------|
|-----------3-----------------------------3----------||-------------3-2-1-|
|--5-4----5---4--5-4-------------5-4----5---4--5-4---||---4---------3-2-1-|
|------5-------------5--0-3-4-1------5-------------5-||-0---1-0-1---3-2-1-|
Pm TPTPTP TPTPTP TPTPTP TPTPTPTP TPTPTP TPTPTP TPTPTP               - - -

                                         First Chourus
|--------------------------------------|---------|---------------|
|--------------------------------------|---------|---------------|
|--------------------------------------|-----10--|-------9-------|
|--------------------------------------|-14------|---13----------|
|-0--000--0--00000000--000---0---00000-|---------|---------------|
|-0--000--0--00000000--000---0---00000-|---------|---------------|
                                           X8       X8
 Lead/ Second Chorus
|----------------------------------------------------------|
|--------------12--------------------11--------------------|
|-----10----10----10----10----9----9----9----9-------------|
|--14----14----------14----13---13--------13---------------|
|----------------------------------------------------------|
|----------------------------------------------------------|

|----------|-------------------|------------------------------------|
|----------|-------------------|------------------------------------|
|----------|-------------------|------------------------------------|
|-1-0-1-4--|-------------------|------------------------------------|
|-1-0-1-4--|--------3---2---1--|------------------------------------|
|-1-0-1-4--|--0-1-4---4---3----|-000-000-000-000-000-000-000-000----|
Pm  - -       tptptptptptptptp   --- --- --- --- --- --- ---

|----------------------------------------------------------------|
|----------------------------------------------------------------|
|----------------------------------------------------------------|
|---------1----------4------3----------2----------1------3-------|
|---------1----------4------3----------2----------1------3-------|
|-000-000-1--000-000-4--000----000-000----000-000----000-3-------|

|--------------|------------------------|--------------------------|
|--------------|------------------------|--------------------------|
|--------------|------------------------|--------------------------|
|--------------|------------------------|--------------------------|
|--------------|--------------1---------|--------------4-----------|
|-0--2--111--0-|-0--2--111--0---0--2--1-|-0--3--111--0---0--3--1---|
                              Tp                       tp
            
Hard to play? Try these video lessons and learn fast. | Correct




comments powered by Disqus
↑ Back to top | Tablatures and chords are parodies/interpretations of the original songs. You may use it for private study, scholarship, research or language learning purposes only